  0
SECTION
  2
HEADER
  9
$ACADVER
  1
AC1015
  9
$ACADMAINTVER
 70
     6
  9
$DWGCODEPAGE
  3
ANSI_1254
  9
$INSBASE
 10
0.0
 20
0.0
 30
0.0
  9
$EXTMIN
 10
0.0
 20
0.0
 30
0.0
  9
$EXTMAX
 10
279.4
 20
215.9
 30
0.0
  9
$LIMMIN
 10
0.0
 20
0.0
  9
$LIMMAX
 10
279.4
 20
215.9
  9
$ORTHOMODE
 70
     0
  9
$REGENMODE
 70
     1
  9
$FILLMODE
 70
     1
  9
$QTEXTMODE
 70
     0
  9
$MIRRTEXT
 70
     1
  9
$LTSCALE
 40
1.0
  9
$ATTMODE
 70
     1
  9
$TEXTSIZE
 40
3.5
  9
$TRACEWID
 40
1.0
  9
$TEXTSTYLE
  7
Standard
  9
$CLAYER
  8
0
  9
$CELTYPE
  6
ByLayer
  9
$CECOLOR
 62
   256
  9
$CELTSCALE
 40
1.0
  9
$DISPSILH
 70
     0
  9
$DIMSCALE
 40
1.0
  9
$DIMASZ
 40
3.5
  9
$DIMEXO
 40
1.0
  9
$DIMDLI
 40
3.75
  9
$DIMRND
 40
0.0
  9
$DIMDLE
 40
0.0
  9
$DIMEXE
 40
1.0
  9
$DIMTP
 40
0.0
  9
$DIMTM
 40
0.0
  9
$DIMTXT
 40
3.5
  9
$DIMCEN
 40
2.5
  9
$DIMTSZ
 40
0.0
  9
$DIMTOL
 70
     0
  9
$DIMLIM
 70
     0
  9
$DIMTIH
 70
     1
  9
$DIMTOH
 70
     1
  9
$DIMSE1
 70
     0
  9
$DIMSE2
 70
     0
  9
$DIMTAD
 70
     1
  9
$DIMZIN
 70
     0
  9
$DIMBLK
  1

  9
$DIMASO
 70
     1
  9
$DIMSHO
 70
     1
  9
$DIMPOST
  1

  9
$DIMAPOST
  1

  9
$DIMALT
 70
     0
  9
$DIMALTD
 70
     3
  9
$DIMALTF
 40
0.0393700787
  9
$DIMLFAC
 40
1.0
  9
$DIMTOFL
 70
     1
  9
$DIMTVP
 40
0.0
  9
$DIMTIX
 70
     0
  9
$DIMSOXD
 70
     0
  9
$DIMSAH
 70
     0
  9
$DIMBLK1
  1

  9
$DIMBLK2
  1

  9
$DIMSTYLE
  2
ISO-25
  9
$DIMCLRD
 70
     0
  9
$DIMCLRE
 70
     0
  9
$DIMCLRT
 70
     0
  9
$DIMTFAC
 40
1.0
  9
$DIMGAP
 40
1.524
  9
$DIMJUST
 70
     0
  9
$DIMSD1
 70
     0
  9
$DIMSD2
 70
     0
  9
$DIMTOLJ
 70
     0
  9
$DIMTZIN
 70
     0
  9
$DIMALTZ
 70
     0
  9
$DIMALTTZ
 70
     0
  9
$DIMUPT
 70
     0
  9
$DIMDEC
 70
     2
  9
$DIMTDEC
 70
     2
  9
$DIMALTU
 70
     2
  9
$DIMALTTD
 70
     3
  9
$DIMTXSTY
  7
Standard
  9
$DIMAUNIT
 70
     0
  9
$DIMADEC
 70
     2
  9
$DIMALTRND
 40
0.0
  9
$DIMAZIN
 70
     0
  9
$DIMDSEP
 70
    44
  9
$DIMATFIT
 70
     3
  9
$DIMFRAC
 70
     0
  9
$DIMLDRBLK
  1

  9
$DIMLUNIT
 70
     2
  9
$DIMLWD
 70
    -2
  9
$DIMLWE
 70
    -2
  9
$DIMTMOVE
 70
     0
  9
$LUNITS
 70
     2
  9
$LUPREC
 70
     2
  9
$SKETCHINC
 40
1.0
  9
$FILLETRAD
 40
10.0
  9
$AUNITS
 70
     0
  9
$AUPREC
 70
     2
  9
$MENU
  1
.
  9
$ELEVATION
 40
0.0
  9
$PELEVATION
 40
0.0
  9
$THICKNESS
 40
0.0
  9
$LIMCHECK
 70
     0
  9
$CHAMFERA
 40
0.0
  9
$CHAMFERB
 40
0.0
  9
$CHAMFERC
 40
0.0
  9
$CHAMFERD
 40
0.0
  9
$SKPOLY
 70
     0
  9
$TDCREATE
 40
2458985.718131597
  9
$TDUCREATE
 40
2458985.593131597
  9
$TDUPDATE
 40
2458985.718131887
  9
$TDUUPDATE
 40
2458985.593131887
  9
$TDINDWG
 40
0.0000000116
  9
$TDUSRTIMER
 40
0.0000000116
  9
$USRTIMER
 70
     1
  9
$ANGBASE
 50
0.0
  9
$ANGDIR
 70
     0
  9
$PDMODE
 70
     0
  9
$PDSIZE
 40
-1.0
  9
$PLINEWID
 40
0.0
  9
$SPLFRAME
 70
     0
  9
$SPLINETYPE
 70
     6
  9
$SPLINESEGS
 70
     8
  9
$HANDSEED
  5
DD
  9
$SURFTAB1
 70
     6
  9
$SURFTAB2
 70
     6
  9
$SURFTYPE
 70
     6
  9
$SURFU
 70
     6
  9
$SURFV
 70
     6
  9
$UCSBASE
  2

  9
$UCSNAME
  2

  9
$UCSORG
 10
0.0
 20
0.0
 30
0.0
  9
$UCSXDIR
 10
1.0
 20
0.0
 30
0.0
  9
$UCSYDIR
 10
0.0
 20
1.0
 30
0.0
  9
$UCSORTHOREF
  2

  9
$UCSORTHOVIEW
 70
     0
  9
$UCSORGTOP
 10
0.0
 20
0.0
 30
0.0
  9
$UCSORGBOTTOM
 10
0.0
 20
0.0
 30
0.0
  9
$UCSORGLEFT
 10
0.0
 20
0.0
 30
0.0
  9
$UCSORGRIGHT
 10
0.0
 20
0.0
 30
0.0
  9
$UCSORGFRONT
 10
0.0
 20
0.0
 30
0.0
  9
$UCSORGBACK
 10
0.0
 20
0.0
 30
0.0
  9
$PUCSBASE
  2

  9
$PUCSNAME
  2

  9
$PUCSORG
 10
0.0
 20
0.0
 30
0.0
  9
$PUCSXDIR
 10
1.0
 20
0.0
 30
0.0
  9
$PUCSYDIR
 10
0.0
 20
1.0
 30
0.0
  9
$PUCSORTHOREF
  2

  9
$PUCSORTHOVIEW
 70
     0
  9
$PUCSORGTOP
 10
0.0
 20
0.0
 30
0.0
  9
$PUCSORGBOTTOM
 10
0.0
 20
0.0
 30
0.0
  9
$PUCSORGLEFT
 10
0.0
 20
0.0
 30
0.0
  9
$PUCSORGRIGHT
 10
0.0
 20
0.0
 30
0.0
  9
$PUCSORGFRONT
 10
0.0
 20
0.0
 30
0.0
  9
$PUCSORGBACK
 10
0.0
 20
0.0
 30
0.0
  9
$USERI1
 70
     0
  9
$USERI2
 70
     0
  9
$USERI3
 70
     0
  9
$USERI4
 70
     0
  9
$USERI5
 70
     0
  9
$USERR1
 40
0.0
  9
$USERR2
 40
0.0
  9
$USERR3
 40
0.0
  9
$USERR4
 40
0.0
  9
$USERR5
 40
0.0
  9
$WORLDVIEW
 70
     1
  9
$SHADEDGE
 70
     3
  9
$SHADEDIF
 70
    70
  9
$TILEMODE
 70
     1
  9
$MAXACTVP
 70
    64
  9
$PINSBASE
 10
0.0
 20
0.0
 30
0.0
  9
$PLIMCHECK
 70
     0
  9
$PEXTMIN
 10
1.0000000000E+20
 20
1.0000000000E+20
 30
1.0000000000E+20
  9
$PEXTMAX
 10
-1.0000000000E+20
 20
-1.0000000000E+20
 30
-1.0000000000E+20
  9
$PLIMMIN
 10
0.0
 20
0.0
  9
$PLIMMAX
 10
420.0
 20
297.0
  9
$UNITMODE
 70
     0
  9
$VISRETAIN
 70
     1
  9
$PLINEGEN
 70
     0
  9
$PSLTSCALE
 70
     1
  9
$TREEDEPTH
 70
  3020
  9
$CMLSTYLE
  2
Standard
  9
$CMLJUST
 70
     0
  9
$CMLSCALE
 40
20.0
  9
$PROXYGRAPHICS
 70
     1
  9
$MEASUREMENT
 70
     1
  9
$CELWEIGHT
370
    -1
  9
$ENDCAPS
280
     0
  9
$JOINSTYLE
280
     0
  9
$LWDISPLAY
290
     1
  9
$INSUNITS
 70
     4
  9
$HYPERLINKBASE
  1

  9
$STYLESHEET
  1

  9
$XEDIT
290
     1
  9
$CEPSNTYPE
380
     0
  9
$PSTYLEMODE
290
     1
  9
$FINGERPRINTGUID
  2
{b29f3efa-3ab2-46c6-8906-958c22c13677}
  9
$VERSIONGUID
  2
{FAEB1C32-E019-11D5-929B-00C0DF256EC4}
  9
$EXTNAMES
290
     1
  9
$PSVPSCALE
 40
0.0
  9
$OLESTARTUP
290
     0
  0
ENDSEC
  0
SECTION
  2
CLASSES
  0
CLASS
  1
ACDBDICTIONARYWDFLT
  2
AcDbDictionaryWithDefault
  3
ObjectDBX Classes
 90
        0
280
     0
281
     0
  0
CLASS
  1
VISUALSTYLE
  2
AcDbVisualStyle
  3
ObjectDBX Classes
 90
     4095
280
     0
281
     0
  0
CLASS
  1
MATERIAL
  2
AcDbMaterial
  3
ObjectDBX Classes
 90
     1153
280
     0
281
     0
  0
CLASS
  1
SCALE
  2
AcDbScale
  3
ObjectDBX Classes
 90
     1153
280
     0
281
     0
  0
CLASS
  1
TABLESTYLE
  2
AcDbTableStyle
  3
ObjectDBX Classes
 90
     4095
280
     0
281
     0
  0
CLASS
  1
MLEADERSTYLE
  2
AcDbMLeaderStyle
  3
ACDB_MLEADERSTYLE_CLASS
 90
     4095
280
     0
281
     0
  0
CLASS
  1
SUN
  2
AcDbSun
  3
SCENEOE
 90
     1153
280
     0
281
     0
  0
CLASS
  1
ACDBPLACEHOLDER
  2
AcDbPlaceHolder
  3
ObjectDBX Classes
 90
        0
280
     0
281
     0
  0
CLASS
  1
LAYOUT
  2
AcDbLayout
  3
ObjectDBX Classes
 90
        0
280
     0
281
     0
  0
ENDSEC
  0
SECTION
  2
TABLES
  0
TABLE
  2
VPORT
  5
8
330
0
100
AcDbSymbolTable
 70
     1
  0
VPORT
  5
29
330
8
100
AcDbSymbolTableRecord
100
AcDbViewportTableRecord
  2
*Active
 70
     0
 10
0.0
 20
0.0
 11
1.0
 21
1.0
 12
139.7
 22
107.95
 13
0.0
 23
0.0
 14
10.0
 24
10.0
 15
10.0
 25
10.0
 16
0.0
 26
0.0
 36
1.0
 17
0.0
 27
0.0
 37
0.0
 40
215.9
 41
1.2941176471
 42
50.0
 43
0.0
 44
0.0
 50
0.0
 51
0.0
 71
     0
 72
  2000
 73
     1
 74
     3
 75
     0
 76
     0
 77
     0
 78
     0
281
     0
 65
     1
110
0.0
120
0.0
130
0.0
111
1.0
121
0.0
131
0.0
112
0.0
122
1.0
132
0.0
 79
     0
146
0.0
  0
ENDTAB
  0
TABLE
  2
LTYPE
  5
5
330
0
100
AcDbSymbolTable
 70
     6
  0
LTYPE
  5
14
330
5
100
AcDbSymbolTableRecord
100
AcDbLinetypeTableRecord
  2
ByBlock
 70
     0
  3

 72
    65
 73
     0
 40
0.0
  0
LTYPE
  5
15
330
5
100
AcDbSymbolTableRecord
100
AcDbLinetypeTableRecord
  2
ByLayer
 70
     0
  3

 72
    65
 73
     0
 40
0.0
  0
LTYPE
  5
16
330
5
100
AcDbSymbolTableRecord
100
AcDbLinetypeTableRecord
  2
Continuous
 70
     0
  3
Solid line
 72
    65
 73
     0
 40
0.0
  0
LTYPE
  5
6E
330
5
100
AcDbSymbolTableRecord
100
AcDbLinetypeTableRecord
  2
HIDDEN
 70
     0
  3
Hidden __ __ __ __ __ __ __ __ __ __ __ __ __ __
 72
    65
 73
     2
 40
1.905
 49
1.27
 74
     0
 49
-0.635
 74
     0
  0
LTYPE
  5
6F
330
5
100
AcDbSymbolTableRecord
100
AcDbLinetypeTableRecord
  2
PHANTOM
 70
     0
  3
Phantom ______  __  __  ______  __  __  ______
 72
    65
 73
     6
 40
12.7
 49
6.35
 74
     0
 49
-1.27
 74
     0
 49
1.27
 74
     0
 49
-1.27
 74
     0
 49
1.27
 74
     0
 49
-1.27
 74
     0
  0
LTYPE
  5
70
330
5
100
AcDbSymbolTableRecord
100
AcDbLinetypeTableRecord
  2
CENTER
 70
     0
  3
Center ____ _ ____ _ ____ _ ____ _ ____ _ ____
 72
    65
 73
     4
 40
10.16
 49
6.35
 74
     0
 49
-1.27
 74
     0
 49
1.27
 74
     0
 49
-1.27
 74
     0
  0
LTYPE
  5
71
330
5
100
AcDbSymbolTableRecord
100
AcDbLinetypeTableRecord
  2
CENTERX2
 70
     0
  3
Center (2x) ________  __  ________  __  _____
 72
    65
 73
     4
 40
20.32
 49
12.7
 74
     0
 49
-2.54
 74
     0
 49
2.54
 74
     0
 49
-2.54
 74
     0
  0
LTYPE
  5
72
330
5
100
AcDbSymbolTableRecord
100
AcDbLinetypeTableRecord
  2
DOT2
 70
     0
  3
Dot (.5x) ........................................
 72
    65
 73
     2
 40
0.635
 49
0.0
 74
     0
 49
-0.635
 74
     0
  0
ENDTAB
  0
TABLE
  2
LAYER
  5
2
330
0
100
AcDbSymbolTable
 70
    17
  0
LAYER
  5
10
330
2
100
AcDbSymbolTableRecord
100
AcDbLayerTableRecord
  2
0
 70
     0
 62
     7
  6
Continuous
370
    -3
390
F
  0
LAYER
  5
73
330
2
100
AcDbSymbolTableRecord
100
AcDbLayerTableRecord
  2
FORMAT
 70
     0
 62
     7
  6
Continuous
370
    -3
390
F
  0
LAYER
  5
74
330
2
100
AcDbSymbolTableRecord
100
AcDbLayerTableRecord
  2
YARDIMCI_GEOMETRI
 70
     0
 62
    -6
  6
Continuous
290
     0
370
    -3
390
F
  0
LAYER
  5
75
330
2
100
AcDbSymbolTableRecord
100
AcDbLayerTableRecord
  2
SAYFA_CERCEVESI
 70
     0
 62
     7
  6
Continuous
370
    25
390
F
  0
LAYER
  5
76
330
2
100
AcDbSymbolTableRecord
100
AcDbLayerTableRecord
  2
ANTET
 70
     0
 62
     7
  6
Continuous
370
    -3
390
F
  0
LAYER
  5
77
330
2
100
AcDbSymbolTableRecord
100
AcDbLayerTableRecord
  2
OLCU
 70
     0
 62
   150
  6
Continuous
370
    -3
390
F
  0
LAYER
  5
78
330
2
100
AcDbSymbolTableRecord
100
AcDbLayerTableRecord
  2
METIN
 70
     0
 62
    96
  6
Continuous
370
    -3
390
F
  0
LAYER
  5
79
330
2
100
AcDbSymbolTableRecord
100
AcDbLayerTableRecord
  2
BALON
 70
     0
 62
     5
  6
Continuous
370
    -3
390
F
  0
LAYER
  5
7A
330
2
100
AcDbSymbolTableRecord
100
AcDbLayerTableRecord
  2
VURGU
 70
     0
 62
     7
  6
Continuous
370
    -3
390
F
  0
LAYER
  5
7B
330
2
100
AcDbSymbolTableRecord
100
AcDbLayerTableRecord
  2
SILIK
 70
     0
 62
     7
  6
Continuous
370
    -3
390
F
  0
LAYER
  5
7C
330
2
100
AcDbSymbolTableRecord
100
AcDbLayerTableRecord
  2
MODEL
 70
     0
 62
     7
  6
Continuous
370
    -3
390
F
  0
LAYER
  5
7D
330
2
100
AcDbSymbolTableRecord
100
AcDbLayerTableRecord
  2
DETAYLANDıRMA
 70
     0
 62
   190
  6
Continuous
370
    -3
390
F
  0
LAYER
  5
7E
330
2
100
AcDbSymbolTableRecord
100
AcDbLayerTableRecord
  2
TOLERANS
 70
     0
 62
   230
  6
Continuous
370
    -3
390
F
  0
LAYER
  5
7F
330
2
100
AcDbSymbolTableRecord
100
AcDbLayerTableRecord
  2
MERKEZ_CIZGILERI
 70
     0
 62
    30
  6
Continuous
370
    -3
390
F
  0
LAYER
  5
80
330
2
100
AcDbSymbolTableRecord
100
AcDbLayerTableRecord
  2
KESIT-DETAY_CIZGILERI
 70
     0
 62
     7
  6
Continuous
370
    -3
390
F
  0
LAYER
  5
81
330
2
100
AcDbSymbolTableRecord
100
AcDbLayerTableRecord
  2
\U+041E\U+0421\U+0415\U+0412\U+042B\U+0415
 70
     0
 62
     7
  6
Continuous
370
    -3
390
F
  0
LAYER
  5
82
330
2
100
AcDbSymbolTableRecord
100
AcDbLayerTableRecord
  2
\U+0412\U+041E\U+0414\U+042F\U+041D\U+042B\U+0415_\U+0417\U+041D\U+0410\U+041A\U+0418
 70
     0
 62
    11
  6
Continuous
370
    -3
390
F
  0
ENDTAB
  0
TABLE
  2
STYLE
  5
3
330
0
100
AcDbSymbolTable
 70
     1
  0
STYLE
  5
11
330
3
100
AcDbSymbolTableRecord
100
AcDbTextStyleTableRecord
  2
Standard
 70
     0
 40
0.0
 41
1.0
 50
0.0
 71
     0
 42
3.5
  3
txt
  4

  0
ENDTAB
  0
TABLE
  2
VIEW
  5
6
330
0
100
AcDbSymbolTable
 70
     0
  0
ENDTAB
  0
TABLE
  2
UCS
  5
7
330
0
100
AcDbSymbolTable
 70
     0
  0
ENDTAB
  0
TABLE
  2
APPID
  5
9
330
0
100
AcDbSymbolTable
 70
     1
  0
APPID
  5
12
330
9
100
AcDbSymbolTableRecord
100
AcDbRegAppTableRecord
  2
ACAD
 70
     0
  0
ENDTAB
  0
TABLE
  2
DIMSTYLE
  5
A
330
0
100
AcDbSymbolTable
 70
     1
100
AcDbDimStyleTable
  0
DIMSTYLE
105
27
330
A
100
AcDbSymbolTableRecord
100
AcDbDimStyleTableRecord
  2
ISO-25
 70
     0
 41
2.5
 42
0.625
 43
3.75
 44
1.25
 73
     0
 74
     0
 77
     1
 78
     8
140
2.5
141
2.5
143
0.0393700787
147
0.625
171
     3
172
     1
178
     0
271
     2
272
     2
274
     3
278
    44
283
     0
284
     8
340
11
  0
ENDTAB
  0
TABLE
  2
BLOCK_RECORD
  5
1
330
0
100
AcDbSymbolTable
 70
     3
  0
BLOCK_RECORD
  5
1F
330
1
100
AcDbSymbolTableRecord
100
AcDbBlockTableRecord
  2
*Model_Space
340
22
  0
BLOCK_RECORD
  5
1B
330
1
100
AcDbSymbolTableRecord
100
AcDbBlockTableRecord
  2
*Paper_Space
340
1E
  0
BLOCK_RECORD
  5
23
330
1
100
AcDbSymbolTableRecord
100
AcDbBlockTableRecord
  2
*Paper_Space0
340
26
  0
BLOCK_RECORD
  5
AF
330
1
100
AcDbSymbolTableRecord
100
AcDbBlockTableRecord
  2
SW_CENTERMARKSYMBOL_0
340
0
102
{BLKREFS
331
BA
102
}
  0
BLOCK_RECORD
  5
C3
330
1
100
AcDbSymbolTableRecord
100
AcDbBlockTableRecord
  2
SW_CENTERMARKSYMBOL_1
340
0
102
{BLKREFS
331
CE
102
}
  0
ENDTAB
  0
ENDSEC
  0
SECTION
  2
BLOCKS
  0
BLOCK
  5
20
330
1F
100
AcDbEntity
  8
0
100
AcDbBlockBegin
  2
*Model_Space
 70
     0
 10
0.0
 20
0.0
 30
0.0
  3
*Model_Space
  1

  0
ENDBLK
  5
21
330
1F
100
AcDbEntity
  8
0
100
AcDbBlockEnd
  0
BLOCK
  5
1C
330
1B
100
AcDbEntity
 67
     1
  8
0
100
AcDbBlockBegin
  2
*Paper_Space
 70
     0
 10
0.0
 20
0.0
 30
0.0
  3
*Paper_Space
  1

  0
ENDBLK
  5
1D
330
1B
100
AcDbEntity
 67
     1
  8
0
100
AcDbBlockEnd
  0
BLOCK
  5
24
330
23
100
AcDbEntity
  8
0
100
AcDbBlockBegin
  2
*Paper_Space0
 70
     0
 10
0.0
 20
0.0
 30
0.0
  3
*Paper_Space0
  1

  0
ENDBLK
  5
25
330
23
100
AcDbEntity
  8
0
100
AcDbBlockEnd
  0
BLOCK
  5
B0
330
AF
100
AcDbEntity
  8
0
100
AcDbBlockBegin
  2
SW_CENTERMARKSYMBOL_0
 70
     0
 10
0.0
 20
0.0
 30
0.0
  3
SW_CENTERMARKSYMBOL_0
  1

  0
LINE
  5
B2
330
AF
100
AcDbEntity
  8
FORMAT
 62
     0
100
AcDbLine
 10
0.0
 20
0.0
 30
0.0
 11
0.0
 21
2.5
 31
0.0
  0
LINE
  5
B3
330
AF
100
AcDbEntity
  8
FORMAT
 62
     0
100
AcDbLine
 10
0.0
 20
0.0
 30
0.0
 11
-2.5
 21
0.0
 31
0.0
  0
LINE
  5
B4
330
AF
100
AcDbEntity
  8
FORMAT
 62
     0
100
AcDbLine
 10
0.0
 20
0.0
 30
0.0
 11
0.0
 21
-2.5
 31
0.0
  0
LINE
  5
B5
330
AF
100
AcDbEntity
  8
FORMAT
 62
     0
100
AcDbLine
 10
0.0
 20
0.0
 30
0.0
 11
2.5
 21
0.0
 31
0.0
  0
LINE
  5
B6
330
AF
100
AcDbEntity
  8
FORMAT
 62
     0
100
AcDbLine
 10
0.0
 20
5.0
 30
0.0
 11
0.0
 21
65.0
 31
0.0
  0
LINE
  5
B7
330
AF
100
AcDbEntity
  8
FORMAT
 62
     0
100
AcDbLine
 10
-5.0
 20
0.0
 30
0.0
 11
-65.0
 21
0.0
 31
0.0
  0
LINE
  5
B8
330
AF
100
AcDbEntity
  8
FORMAT
 62
     0
100
AcDbLine
 10
0.0
 20
-5.0
 30
0.0
 11
0.0
 21
-65.0
 31
0.0
  0
LINE
  5
B9
330
AF
100
AcDbEntity
  8
FORMAT
 62
     0
100
AcDbLine
 10
5.0
 20
0.0
 30
0.0
 11
65.0
 21
0.0
 31
0.0
  0
ENDBLK
  5
B1
330
AF
100
AcDbEntity
  8
0
100
AcDbBlockEnd
  0
BLOCK
  5
C4
330
C3
100
AcDbEntity
  8
0
100
AcDbBlockBegin
  2
SW_CENTERMARKSYMBOL_1
 70
     0
 10
0.0
 20
0.0
 30
0.0
  3
SW_CENTERMARKSYMBOL_1
  1

  0
LINE
  5
C6
330
C3
100
AcDbEntity
  8
FORMAT
 62
     0
100
AcDbLine
 10
0.0
 20
0.0
 30
0.0
 11
0.0
 21
2.5
 31
0.0
  0
LINE
  5
C7
330
C3
100
AcDbEntity
  8
FORMAT
 62
     0
100
AcDbLine
 10
0.0
 20
0.0
 30
0.0
 11
-2.5
 21
0.0
 31
0.0
  0
LINE
  5
C8
330
C3
100
AcDbEntity
  8
FORMAT
 62
     0
100
AcDbLine
 10
0.0
 20
0.0
 30
0.0
 11
0.0
 21
-2.5
 31
0.0
  0
LINE
  5
C9
330
C3
100
AcDbEntity
  8
FORMAT
 62
     0
100
AcDbLine
 10
0.0
 20
0.0
 30
0.0
 11
2.5
 21
0.0
 31
0.0
  0
LINE
  5
CA
330
C3
100
AcDbEntity
  8
FORMAT
 62
     0
100
AcDbLine
 10
0.0
 20
5.0
 30
0.0
 11
0.0
 21
65.0
 31
0.0
  0
LINE
  5
CB
330
C3
100
AcDbEntity
  8
FORMAT
 62
     0
100
AcDbLine
 10
-5.0
 20
0.0
 30
0.0
 11
-65.0
 21
0.0
 31
0.0
  0
LINE
  5
CC
330
C3
100
AcDbEntity
  8
FORMAT
 62
     0
100
AcDbLine
 10
0.0
 20
-5.0
 30
0.0
 11
0.0
 21
-65.0
 31
0.0
  0
LINE
  5
CD
330
C3
100
AcDbEntity
  8
FORMAT
 62
     0
100
AcDbLine
 10
5.0
 20
0.0
 30
0.0
 11
65.0
 21
0.0
 31
0.0
  0
ENDBLK
  5
C5
330
C3
100
AcDbEntity
  8
0
100
AcDbBlockEnd
  0
ENDSEC
  0
SECTION
  2
ENTITIES
  0
LINE
  5
83
330
1F
100
AcDbEntity
  8
0
  6
Continuous
 62
     7
370
    25
100
AcDbLine
 10
62.8777320005
 20
108.6532331268
 30
0.0
 11
62.8777320005
 21
-4.4584193071
 31
0.0
  0
LINE
  5
84
330
1F
100
AcDbEntity
  8
0
  6
Continuous
 62
     7
370
    25
100
AcDbLine
 10
187.8777320005
 20
-4.4584193071
 30
0.0
 11
187.8777320005
 21
108.6532331268
 31
0.0
  0
ARC
  5
85
330
1F
100
AcDbEntity
  8
0
  6
Continuous
 62
     7
370
    25
100
AcDbCircle
 10
187.8777320005
 20
108.6532330446
 30
0.0
 40
125.0
100
AcDbArc
 50
135.0
 51
180.0
  0
LINE
  5
86
330
1F
100
AcDbEntity
  8
0
  6
Continuous
 62
     7
370
    25
100
AcDbLine
 10
181.1835566975
 20
278.7357649962
 30
0.0
 11
99.4893840022
 21
197.0415792624
 31
0.0
  0
LINE
  5
87
330
1F
100
AcDbEntity
  8
0
  6
Continuous
 62
     7
370
    25
100
AcDbLine
 10
187.8777320005
 20
108.6532331268
 30
0.0
 11
269.5719028331
 21
190.34741141
 31
0.0
  0
LINE
  5
88
330
1F
100
AcDbEntity
  8
0
  6
Continuous
 62
     7
370
    25
100
AcDbLine
 10
125.3777320005
 20
-4.4584193071
 30
0.0
 11
187.8777320005
 21
-4.4584193071
 31
0.0
  0
LINE
  5
89
330
1F
100
AcDbEntity
  8
0
  6
Continuous
 62
     7
370
    25
100
AcDbLine
 10
62.8777320005
 20
-4.4584193071
 30
0.0
 11
125.3777320005
 21
-4.4584193071
 31
0.0
  0
LWPOLYLINE
  5
8A
330
1F
100
AcDbEntity
  8
0
  6
Continuous
 62
     7
370
    25
100
AcDbPolyline
 90
       26
 70
   128
 43
0.0
 10
225.3777334906
 20
234.5415733019
 10
228.2092595912
 20
231.7100546519
 10
231.0291553355
 20
228.8901589076
 10
233.8258276201
 20
226.0934791724
 10
236.5877876497
 20
223.3315191428
 10
239.3036807395
 20
220.6156335036
 10
241.9623459197
 20
217.9569683234
 10
244.5528680898
 20
215.3664461533
 10
247.0645854689
 20
212.8547213236
 10
249.487193904
 20
210.4321203391
 10
251.810731969
 20
208.1085822741
 10
254.02565547
 20
205.8936587731
 10
256.1228448964
 20
203.7964693467
 10
258.0937022782
 20
201.8256119648
 10
259.9301213838
 20
199.9891779582
 10
261.6245622254
 20
198.2947520176
 10
263.170065961
 20
196.7492482821
 10
264.5602548934
 20
195.3590593497
 10
265.7894367791
 20
194.129877464
 10
266.8525750257
 20
193.0667392174
 10
267.7452588893
 20
192.1740404526
 10
268.4638673879
 20
191.4554468552
 10
269.0054202891
 20
190.9138939539
 10
269.3676824189
 20
190.551616923
 10
269.5491934634
 20
190.3701058785
 10
269.5719028331
 20
190.34741141
  0
LWPOLYLINE
  5
8B
330
1F
100
AcDbEntity
  8
0
  6
Continuous
 62
     7
370
    25
100
AcDbPolyline
 90
       26
 70
   128
 43
0.0
 10
181.1835566975
 20
278.7357649962
 10
181.2062660671
 20
278.7130556265
 10
181.3877733863
 20
278.5315296809
 10
181.7500504173
 20
278.1692526499
 10
182.2915995933
 20
277.6277146498
 10
183.010196916
 20
276.9091210524
 10
183.9028956808
 20
276.0164222876
 10
184.9660227514
 20
274.9532840411
 10
186.1952083624
 20
273.7241170565
 10
187.5854047454
 20
272.3338983218
 10
189.1308973051
 20
270.7884094874
 10
190.8253381468
 20
269.0939686457
 10
192.6617572523
 20
267.2575495402
 10
194.6326146341
 20
265.2866921584
 10
196.7298115111
 20
263.1895027319
 10
198.9447275616
 20
260.9745941321
 10
201.2682656265
 20
258.6510560671
 10
203.6908740617
 20
256.2284252802
 10
206.2025988914
 20
253.7167153517
 10
208.7931136108
 20
251.1262080828
 10
211.4517862416
 20
248.4675429026
 10
214.1676793314
 20
245.7516274611
 10
216.9296319104
 20
242.9896823327
 10
219.726304195
 20
240.1930025975
 10
222.5461999394
 20
237.3731068532
 10
225.3777334906
 20
234.5415733019
  0
LINE
  5
8C
330
1F
100
AcDbEntity
  8
0
  6
Continuous
 62
     1
370
    25
100
AcDbLine
 10
62.8777320005
 20
108.6532331268
 30
0.0
 11
187.8777320005
 21
108.6532331268
 31
0.0
  0
LWPOLYLINE
  5
8D
330
1F
100
AcDbEntity
  8
0
  6
Continuous
 62
     1
370
    25
100
AcDbPolyline
 90
       50
 70
   128
 43
0.0
 10
99.4893840022
 20
197.0415792624
 10
99.5801860906
 20
196.9507715861
 10
99.852217964
 20
196.6787508885
 10
100.3043620355
 20
196.2266049544
 10
100.9347612477
 20
195.5962113301
 10
101.7408227987
 20
194.7901479165
 10
102.7192386306
 20
193.8117227713
 10
103.8659835673
 20
192.6649890105
 10
105.1763469792
 20
191.3546106974
 10
106.6449476845
 20
189.8860118548
 10
108.2657451249
 20
188.2652125517
 10
110.032083138
 20
186.4988885085
 10
111.9367020644
 20
184.5942667881
 10
113.9717760004
 20
182.5591854016
 10
116.1289416693
 20
180.4020188014
 10
118.3993352085
 20
178.1316331784
 10
120.7736270941
 20
175.7573417584
 10
123.2420605581
 20
173.288904802
 10
125.7944927408
 20
170.7364699999
 10
128.4204350292
 20
168.1105277697
 10
131.1090967126
 20
165.421866552
 10
133.8494295693
 20
162.6815430085
 10
136.6301725126
 20
159.9007926146
 10
139.4399000771
 20
157.0910594622
 10
142.2670657254
 20
154.2639068524
 10
145.1000502772
 20
151.4309129874
 10
147.9272159256
 20
148.6037454764
 10
150.73694349
 20
145.7940272252
 10
153.5176864333
 20
143.0132768313
 10
156.2580192901
 20
140.2729383866
 10
158.9466805078
 20
137.5842771689
 10
161.572622738
 20
134.9583349387
 10
164.12505754
 20
132.4059150378
 10
166.5934907712
 20
129.9374780814
 10
168.9677821911
 20
127.5631866614
 10
171.2381752647
 20
125.2927861372
 10
173.3953418649
 20
123.135619537
 10
175.4304158009
 20
121.1005530516
 10
177.3350337959
 20
119.1959313313
 10
179.1013727404
 20
117.4295923869
 10
180.7221683181
 20
115.8087930838
 10
182.1907671608
 20
114.3401942412
 10
183.501134298
 20
113.0298308293
 10
184.6478792347
 20
111.8830896179
 10
185.6262932039
 20
110.9046719233
 10
186.4323566176
 20
110.0986085097
 10
187.0627539672
 20
109.4682074348
 10
187.5148999013
 20
109.0160689513
 10
187.7869317747
 20
108.7440333525
 10
187.8777320005
 20
108.6532331268
  0
LINE
  5
8E
330
1F
100
AcDbEntity
  8
0
  6
Continuous
 62
     7
370
    25
100
AcDbLine
 10
-190.1753624779
 20
234.5415733019
 30
0.0
 11
-190.1753624779
 21
152.8474024693
 31
0.0
  0
LINE
  5
8F
330
1F
100
AcDbEntity
  8
0
  6
Continuous
 62
     7
370
    25
100
AcDbLine
 10
-65.1753624779
 20
152.8474024693
 30
0.0
 11
-65.1753624779
 21
234.5415733019
 31
0.0
  0
LINE
  5
90
330
1F
100
AcDbEntity
  8
0
  6
Continuous
 62
     7
370
    25
100
AcDbLine
 10
-190.1753624779
 20
152.8474024693
 30
0.0
 11
-190.1753624779
 21
108.6532331268
 31
0.0
  0
LINE
  5
91
330
1F
100
AcDbEntity
  8
0
  6
Continuous
 62
     7
370
    25
100
AcDbLine
 10
-65.1753624779
 20
108.6532331268
 30
0.0
 11
-65.1753624779
 21
152.8474024693
 31
0.0
  0
LINE
  5
92
330
1F
100
AcDbEntity
  8
0
  6
Continuous
 62
     7
370
    25
100
AcDbLine
 10
-190.1753624779
 20
108.6532331268
 30
0.0
 11
-190.1753624779
 21
-4.4584193071
 31
0.0
  0
LINE
  5
93
330
1F
100
AcDbEntity
  8
0
  6
Continuous
 62
     7
370
    25
100
AcDbLine
 10
-65.1753624779
 20
-4.4584193071
 30
0.0
 11
-65.1753624779
 21
108.6532331268
 31
0.0
  0
LWPOLYLINE
  5
94
330
1F
100
AcDbEntity
  8
0
  6
Continuous
 62
     7
370
    25
100
AcDbPolyline
 90
       99
 70
   128
 43
0.0
 10
-190.1753624779
 20
234.5415733019
 10
-190.046947996
 20
231.7100546519
 10
-189.6622372669
 20
228.8901589076
 10
-189.0228098136
 20
226.0934791724
 10
-188.1312919659
 20
223.3315191428
 10
-186.9913456839
 20
220.6156335036
 10
-185.6076611084
 20
217.9569683234
 10
-183.9859155816
 20
215.3664461533
 10
-182.1327810985
 20
212.8547213236
 10
-180.0558684272
 20
210.4321203391
 10
-177.7637122077
 20
208.1085822741
 10
-175.2657336992
 20
205.8936587731
 10
-172.5721960765
 20
203.7964693467
 10
-169.6941671771
 20
201.8256119648
 10
-166.6434747976
 20
199.9891779582
 10
-163.43265454
 20
198.2947520176
 10
-160.0748976571
 20
196.7492482821
 10
-156.5840063495
 20
195.3590593497
 10
-152.9743211222
 20
194.129877464
 10
-149.2606779438
 20
193.0667392174
 10
-145.4583374661
 20
192.1740404526
 10
-141.5829207626
 20
191.4554468552
 10
-137.6503562433
 20
190.9138939539
 10
-133.6768014234
 20
190.551616923
 10
-129.6785861132
 20
190.3701058785
 10
-125.6721388427
 20
190.3701058785
 10
-121.6739235324
 20
190.551616923
 10
-117.7003687126
 20
190.9138939539
 10
-113.7678041932
 20
191.4554468552
 10
-109.8923874897
 20
192.1740404526
 10
-106.090047012
 20
193.0667392174
 10
-102.3764038336
 20
194.129877464
 10
-98.7667186064
 20
195.3590593497
 10
-95.2758272988
 20
196.7492482821
 10
-91.9180704159
 20
198.2947520176
 10
-88.7072501582
 20
199.9891779582
 10
-85.6565577787
 20
201.8256119648
 10
-82.7785288793
 20
203.7964693467
 10
-80.0849912566
 20
205.8936587731
 10
-77.5870127481
 20
208.1085822741
 10
-75.2948565287
 20
210.4321203391
 10
-73.2179438573
 20
212.8547213236
 10
-71.3648093742
 20
215.3664461533
 10
-69.7430638474
 20
217.9569683234
 10
-68.3593792719
 20
220.6156335036
 10
-67.21943299
 20
223.3315191428
 10
-66.3279151422
 20
226.0934791724
 10
-65.6884876889
 20
228.8901589076
 10
-65.3037769598
 20
231.7100546519
 10
-65.1753624779
 20
234.5415733019
 10
-65.3037769598
 20
237.3731068532
 10
-65.6884876889
 20
240.1930025975
 10
-66.3279151422
 20
242.9896823327
 10
-67.21943299
 20
245.7516274611
 10
-68.3593792719
 20
248.4675429026
 10
-69.7430638474
 20
251.1262080828
 10
-71.3648093742
 20
253.7167153517
 10
-73.2179438573
 20
256.2284252802
 10
-75.2948565287
 20
258.6510560671
 10
-77.5870127481
 20
260.9745941321
 10
-80.0849912566
 20
263.1895027319
 10
-82.7785288793
 20
265.2866921584
 10
-85.6565577787
 20
267.2575495402
 10
-88.7072501582
 20
269.0939686457
 10
-91.9180704159
 20
270.7884094874
 10
-95.2758272988
 20
272.3338983218
 10
-98.7667186064
 20
273.7241170565
 10
-102.3764038336
 20
274.9532840411
 10
-106.090047012
 20
276.0164222876
 10
-109.8923874897
 20
276.9091210524
 10
-113.7678041932
 20
277.6277146498
 10
-117.7003687126
 20
278.1692526499
 10
-121.6739235324
 20
278.5315296809
 10
-125.6721388427
 20
278.7130556265
 10
-129.6785861132
 20
278.7130556265
 10
-133.6768014234
 20
278.5315296809
 10
-137.6503562433
 20
278.1692526499
 10
-141.5829207626
 20
277.6277146498
 10
-145.4583374661
 20
276.9091210524
 10
-149.2606779438
 20
276.0164222876
 10
-152.9743211222
 20
274.9532840411
 10
-156.5840063495
 20
273.7241170565
 10
-160.0748976571
 20
272.3338983218
 10
-163.43265454
 20
270.7884094874
 10
-166.6434747976
 20
269.0939686457
 10
-169.6941671771
 20
267.2575495402
 10
-172.5721960765
 20
265.2866921584
 10
-175.2657336992
 20
263.1895027319
 10
-177.7637122077
 20
260.9745941321
 10
-180.0558684272
 20
258.6510560671
 10
-182.1327810985
 20
256.2284252802
 10
-183.9859155816
 20
253.7167153517
 10
-185.6076611084
 20
251.1262080828
 10
-186.9913456839
 20
248.4675429026
 10
-188.1312919659
 20
245.7516274611
 10
-189.0228098136
 20
242.9896823327
 10
-189.6622372669
 20
240.1930025975
 10
-190.046947996
 20
237.3731068532
 10
-190.1753624779
 20
234.5415733019
  0
LWPOLYLINE
  5
95
330
1F
100
AcDbEntity
  8
0
  6
Continuous
 62
     7
370
    25
100
AcDbPolyline
 90
       90
 70
   128
 43
0.0
 10
-178.775363217
 20
234.5415733019
 10
-178.6480737728
 20
237.0903722207
 10
-178.2668424648
 20
239.62647535
 10
-177.6335654658
 20
242.1372316042
 10
-176.7513980967
 20
244.6101538102
 10
-175.6247399253
 20
247.0329187075
 10
-174.2591975135
 20
249.3934414546
 10
-172.6615769667
 20
251.6799948374
 10
-170.8398392302
 20
253.8811645667
 10
-168.803055386
 20
255.9859535853
 10
-166.56137685
 20
257.9839310805
 10
-164.1259720427
 20
259.8651132742
 10
-161.5089705092
 20
261.6201422373
 10
-158.7234126282
 20
263.240256087
 10
-155.7831732434
 20
264.7174081961
 10
-152.702902059
 20
266.0442075888
 10
-149.4979472709
 20
267.2140977541
 10
-146.1842717481
 20
268.2211778323
 10
-142.7783850458
 20
269.0604708354
 10
-139.2972567928
 20
269.7278044383
 10
-135.7582291466
 20
270.2198407809
 10
-132.178932975
 20
270.5341360728
 10
-128.5771998455
 20
270.6691107909
 10
-124.9709740159
 20
270.6241092841
 10
-121.3782211644
 20
270.3993401686
 10
-117.8168408451
 20
269.9959061305
 10
-114.3045747531
 20
269.4158635298
 10
-110.8589215082
 20
268.6620733897
 10
-107.4970463169
 20
267.7383206049
 10
-104.2356980843
 20
266.649164931
 10
-101.0911265266
 20
265.4000303904
 10
-98.0789964897
 20
263.997175471
 10
-95.2143115801
 20
262.4475739161
 10
-92.5113489729
 20
260.7589743296
 10
-89.9835681421
 20
258.9397213618
 10
-87.6435717446
 20
256.9989345232
 10
-85.5030050379
 20
254.9462697665
 10
-83.5725447041
 20
252.791949288
 10
-81.8617982668
 20
250.546701924
 10
-80.3792929155
 20
248.2217035452
 10
-79.1324159008
 20
245.8285770575
 10
-78.1273772818
 20
243.3791986863
 10
-77.3691838485
 20
240.8858022849
 10
-76.8616130454
 20
238.3608005206
 10
-76.6071943444
 20
235.8167699734
 10
-76.6071943444
 20
233.2663915316
 10
-76.8616130454
 20
230.7223609845
 10
-77.3691838485
 20
228.1973592202
 10
-78.1273772818
 20
225.7039628188
 10
-79.1324159008
 20
223.2545844475
 10
-80.3792929155
 20
220.8614579598
 10
-81.8617982668
 20
218.536459581
 10
-83.5725447041
 20
216.2912271182
 10
-85.5030050379
 20
214.1368917386
 10
-87.6435717446
 20
212.0842269818
 10
-89.9835681421
 20
210.1434401433
 10
-92.5113489729
 20
208.3242020766
 10
-95.2143115801
 20
206.6355726878
 10
-98.0789964897
 20
205.0859711329
 10
-101.0911265266
 20
203.6831311146
 10
-104.2356980843
 20
202.4340114752
 10
-107.4970463169
 20
201.3448558012
 10
-110.8589215082
 20
200.4210732142
 10
-114.3045747531
 20
199.6672979752
 10
-117.8168408451
 20
199.0872404734
 10
-121.3782211644
 20
198.6838362376
 10
-124.9709740159
 20
198.4590671221
 10
-128.5771998455
 20
198.4140507142
 10
-132.178932975
 20
198.5490254323
 10
-135.7582291466
 20
198.8633207242
 10
-139.2972567928
 20
199.3553570668
 10
-142.7783850458
 20
200.0226757685
 10
-146.1842717481
 20
200.8619836728
 10
-149.4979472709
 20
201.869078652
 10
-152.702902059
 20
203.0389390151
 10
-155.7831732434
 20
204.3657533089
 10
-158.7234126282
 20
205.8429054181
 10
-161.5089705092
 20
207.4630192677
 10
-164.1259720427
 20
209.2180482308
 10
-166.56137685
 20
211.0992304245
 10
-168.803055386
 20
213.0972079197
 10
-170.8398392302
 20
215.2020118395
 10
-172.6615769667
 20
217.4031666676
 10
-174.2591975135
 20
219.6897051493
 10
-175.6247399253
 20
222.0502427975
 10
-176.7513980967
 20
224.4729927937
 10
-177.6335654658
 20
226.9459299008
 10
-178.2668424648
 20
229.456686155
 10
-178.6480737728
 20
231.9927892844
 10
-178.775363217
 20
234.5415733019
  0
LINE
  5
96
330
1F
100
AcDbEntity
  8
0
  6
Continuous
 62
     7
370
    25
100
AcDbLine
 10
-190.1753624779
 20
-4.4584193071
 30
0.0
 11
-65.1753624779
 21
-4.4584193071
 31
0.0
  0
LWPOLYLINE
  5
97
330
1F
100
AcDbEntity
  8
0
  6
Continuous
 62
     1
370
    25
100
AcDbPolyline
 90
       26
 70
   128
 43
0.0
 10
-127.6753624779
 20
108.6532331268
 10
-123.670973896
 20
108.7440333525
 10
-119.6830399212
 20
109.0160689513
 10
-115.7279485715
 20
109.4682074348
 10
-111.8219518912
 20
110.0986085097
 10
-107.9810993624
 20
110.9046719233
 10
-104.22117504
 20
111.8830896179
 10
-100.5576295656
 20
113.0298308293
 10
-97.0055149746
 20
114.3401942412
 10
-93.5794306797
 20
115.8087930838
 10
-90.2934526903
 20
117.4295923869
 10
-87.1610870463
 20
119.1959313313
 10
-84.1952046257
 20
121.1005530516
 10
-81.4079871279
 20
123.135619537
 10
-78.8108935458
 20
125.2927861372
 10
-76.414596836
 20
127.5631866614
 10
-74.2289392156
 20
129.9374780814
 10
-72.2629060847
 20
132.4059150378
 10
-70.5245738727
 20
134.9583349387
 10
-69.0210876864
 20
137.5842771689
 10
-67.7586203319
 20
140.2729383866
 10
-66.7423685891
 20
143.0132768313
 10
-65.9765010578
 20
145.7940272252
 10
-65.4641693336
 20
148.6037454764
 10
-65.2074744803
 20
151.4309129874
 10
-65.1753624779
 20
152.8474024693
  0
LWPOLYLINE
  5
98
330
1F
100
AcDbEntity
  8
0
  6
Continuous
 62
     1
370
    25
100
AcDbPolyline
 90
       26
 70
   128
 43
0.0
 10
-190.1753624779
 20
152.8474024693
 10
-190.1432504755
 20
151.4309129874
 10
-189.8865556222
 20
148.6037454764
 10
-189.3742238981
 20
145.7940272252
 10
-188.6083563668
 20
143.0132768313
 10
-187.5921046239
 20
140.2729383866
 10
-186.3296372694
 20
137.5842771689
 10
-184.8261510831
 20
134.9583349387
 10
-183.0878188712
 20
132.4059150378
 10
-181.1217857403
 20
129.9374780814
 10
-178.9361281198
 20
127.5631866614
 10
-176.5398314101
 20
125.2927861372
 10
-173.9427378279
 20
123.135619537
 10
-171.1555203301
 20
121.1005530516
 10
-168.1896379095
 20
119.1959313313
 10
-165.0572722656
 20
117.4295923869
 10
-161.7712942761
 20
115.8087930838
 10
-158.3452099812
 20
114.3401942412
 10
-154.7930953902
 20
113.0298308293
 10
-151.1295499158
 20
111.8830896179
 10
-147.3696255934
 20
110.9046719233
 10
-143.5287730646
 20
110.0986085097
 10
-139.6227763844
 20
109.4682074348
 10
-135.6676850346
 20
109.0160689513
 10
-131.6797510599
 20
108.7440333525
 10
-127.6753624779
 20
108.6532331268
  0
LINE
  5
99
330
1F
100
AcDbEntity
  8
0
  6
Continuous
 62
     1
370
    25
100
AcDbLine
 10
-127.6753624779
 20
108.6532331268
 30
0.0
 11
-65.1753624779
 21
108.6532331268
 31
0.0
  0
LINE
  5
9A
330
1F
100
AcDbEntity
  8
0
  6
Continuous
 62
     1
370
    25
100
AcDbLine
 10
-190.1753624779
 20
108.6532331268
 30
0.0
 11
-127.6753624779
 21
108.6532331268
 31
0.0
  0
LINE
  5
9B
330
1F
100
AcDbEntity
  8
0
  6
Continuous
 62
     7
370
    25
100
AcDbLine
 10
323.4570202275
 20
108.6532331268
 30
0.0
 11
323.4570202275
 21
-4.4584193071
 31
0.0
  0
LINE
  5
9C
330
1F
100
AcDbEntity
  8
0
  6
Continuous
 62
     7
370
    25
100
AcDbLine
 10
448.4570202275
 20
-4.4584193071
 30
0.0
 11
448.4570202275
 21
108.6532331268
 31
0.0
  0
LINE
  5
9D
330
1F
100
AcDbEntity
  8
0
  6
Continuous
 62
     7
370
    25
100
AcDbLine
 10
448.4570202275
 20
108.6532331268
 30
0.0
 11
448.4570202275
 21
152.8474024693
 31
0.0
  0
LINE
  5
9E
330
1F
100
AcDbEntity
  8
0
  6
Continuous
 62
     7
370
    25
100
AcDbLine
 10
323.4570202275
 20
152.8474024693
 30
0.0
 11
323.4570202275
 21
108.6532331268
 31
0.0
  0
LINE
  5
9F
330
1F
100
AcDbEntity
  8
0
  6
Continuous
 62
     7
370
    25
100
AcDbLine
 10
323.4570202275
 20
234.5415733019
 30
0.0
 11
323.4570202275
 21
152.8474024693
 31
0.0
  0
LINE
  5
A0
330
1F
100
AcDbEntity
  8
0
  6
Continuous
 62
     7
370
    25
100
AcDbLine
 10
448.4570202275
 20
152.8474024693
 30
0.0
 11
448.4570202275
 21
234.5415733019
 31
0.0
  0
LINE
  5
A1
330
1F
100
AcDbEntity
  8
0
  6
Continuous
 62
     7
370
    25
100
AcDbLine
 10
323.4570202275
 20
-4.4584193071
 30
0.0
 11
448.4570202275
 21
-4.4584193071
 31
0.0
  0
LWPOLYLINE
  5
A2
330
1F
100
AcDbEntity
  8
0
  6
Continuous
 62
     7
370
    25
100
AcDbPolyline
 90
       50
 70
   128
 43
0.0
 10
323.4570202275
 20
234.5415733019
 10
323.5854347094
 20
237.3731068532
 10
323.9701454385
 20
240.1930025975
 10
324.6095728918
 20
242.9896823327
 10
325.5010907396
 20
245.7516274611
 10
326.6410370215
 20
248.4675429026
 10
328.0247215971
 20
251.1262080828
 10
329.6464671238
 20
253.7167153517
 10
331.4996016069
 20
256.2284252802
 10
333.5765142783
 20
258.6510560671
 10
335.8686704978
 20
260.9745941321
 10
338.3666490062
 20
263.1895027319
 10
341.0601866289
 20
265.2866921584
 10
343.9382155283
 20
267.2575495402
 10
346.9889079078
 20
269.0939686457
 10
350.1997281655
 20
270.7884094874
 10
353.5574850484
 20
272.3338983218
 10
357.048376356
 20
273.7241170565
 10
360.6580615833
 20
274.9532840411
 10
364.3717047616
 20
276.0164222876
 10
368.1740452393
 20
276.9091210524
 10
372.0494619428
 20
277.6277146498
 10
375.9820264622
 20
278.1692526499
 10
379.955581282
 20
278.5315296809
 10
383.9537965923
 20
278.7130556265
 10
387.9602438628
 20
278.7130556265
 10
391.9584591731
 20
278.5315296809
 10
395.9320139929
 20
278.1692526499
 10
399.8645785122
 20
277.6277146498
 10
403.7399952158
 20
276.9091210524
 10
407.5423356935
 20
276.0164222876
 10
411.2559788718
 20
274.9532840411
 10
414.8656640991
 20
273.7241170565
 10
418.3565554067
 20
272.3338983218
 10
421.7143122896
 20
270.7884094874
 10
424.9251325472
 20
269.0939686457
 10
427.9758249267
 20
267.2575495402
 10
430.8538538261
 20
265.2866921584
 10
433.5473914488
 20
263.1895027319
 10
436.0453699573
 20
260.9745941321
 10
438.3375261768
 20
258.6510560671
 10
440.4144388481
 20
256.2284252802
 10
442.2675733312
 20
253.7167153517
 10
443.889318858
 20
251.1262080828
 10
445.2730034336
 20
248.4675429026
 10
446.4129497155
 20
245.7516274611
 10
447.3044675633
 20
242.9896823327
 10
447.9438950165
 20
240.1930025975
 10
448.3286057457
 20
237.3731068532
 10
448.4570202275
 20
234.5415733019
  0
LINE
  5
A3
330
1F
100
AcDbEntity
  8
0
  6
Continuous
 62
     1
370
    25
100
AcDbLine
 10
323.4570202275
 20
108.6532331268
 30
0.0
 11
448.4570202275
 21
108.6532331268
 31
0.0
  0
LWPOLYLINE
  5
A4
330
1F
100
AcDbEntity
  8
0
  6
Continuous
 62
     1
370
    25
100
AcDbPolyline
 90
       51
 70
   128
 43
0.0
 10
323.4570202275
 20
152.8474024693
 10
323.4891322299
 20
154.2639068524
 10
323.7458270832
 20
157.0910594622
 10
324.2581588074
 20
159.9007926146
 10
325.0240263387
 20
162.6815430085
 10
326.0402780815
 20
165.421866552
 10
327.3027454361
 20
168.1105277697
 10
328.8062316223
 20
170.7364699999
 10
330.5445638343
 20
173.288904802
 10
332.5105969652
 20
175.7573417584
 10
334.6962545856
 20
178.1316331784
 10
337.0925512954
 20
180.4020188014
 10
339.6896448775
 20
182.5591854016
 10
342.4768623754
 20
184.5942667881
 10
345.4427447959
 20
186.4988885085
 10
348.5751104399
 20
188.2652125517
 10
351.8610884293
 20
189.8860118548
 10
355.2871727242
 20
191.3546106974
 10
358.8392873152
 20
192.6649890105
 10
362.5028327896
 20
193.8117227713
 10
366.262757112
 20
194.7901479165
 10
370.1036096408
 20
195.5962113301
 10
374.0096063211
 20
196.2266049544
 10
377.9646976709
 20
196.6787508885
 10
381.9526316456
 20
196.9507715861
 10
385.9570202275
 20
197.0415792624
 10
389.9614088095
 20
196.9507715861
 10
393.9493427842
 20
196.6787508885
 10
397.904434134
 20
196.2266049544
 10
401.8104308142
 20
195.5962113301
 10
405.6512833431
 20
194.7901479165
 10
409.4112076654
 20
193.8117227713
 10
413.0747531398
 20
192.6649890105
 10
416.6268677308
 20
191.3546106974
 10
420.0529520258
 20
189.8860118548
 10
423.3389300152
 20
188.2652125517
 10
426.4712956592
 20
186.4988885085
 10
429.4371780797
 20
184.5942667881
 10
432.2243955775
 20
182.5591854016
 10
434.8214891597
 20
180.4020188014
 10
437.2177858695
 20
178.1316331784
 10
439.4034434899
 20
175.7573417584
 10
441.3694766208
 20
173.288904802
 10
443.1078088327
 20
170.7364699999
 10
444.611295019
 20
168.1105277697
 10
445.8737623735
 20
165.421866552
 10
446.8900141164
 20
162.6815430085
 10
447.6558816477
 20
159.9007926146
 10
448.1682133719
 20
157.0910594622
 10
448.4249082252
 20
154.2639068524
 10
448.4570202275
 20
152.8474024693
  0
LINE
  5
A5
330
1F
100
AcDbEntity
  8
0
  6
Continuous
 62
     7
370
    25
100
AcDbLine
 10
225.3777334906
 20
475.8778078799
 30
0.0
 11
143.6835589326
 21
475.8778078799
 31
0.0
  0
LINE
  5
A6
330
1F
100
AcDbEntity
  8
0
  6
Continuous
 62
     7
370
    25
100
AcDbLine
 10
143.6835589326
 20
350.8778078799
 30
0.0
 11
225.3777334906
 21
350.8778078799
 31
0.0
  0
LINE
  5
A7
330
1F
100
AcDbEntity
  8
0
  6
Continuous
 62
     7
370
    25
100
AcDbLine
 10
143.6835589326
 20
475.8778078799
 30
0.0
 11
125.3777320005
 21
475.8778078799
 31
0.0
  0
LINE
  5
A8
330
1F
100
AcDbEntity
  8
0
  6
Continuous
 62
     7
370
    25
100
AcDbLine
 10
125.3777320005
 20
350.8778078799
 30
0.0
 11
143.6835589326
 21
350.8778078799
 31
0.0
  0
CIRCLE
  5
A9
330
1F
100
AcDbEntity
  8
0
  6
Continuous
 62
     7
370
    25
100
AcDbCircle
 10
125.3777320005
 20
413.3778078799
 30
0.0
 40
51.10000000000002
  0
CIRCLE
  5
AA
330
1F
100
AcDbEntity
  8
0
  6
Continuous
 62
     7
370
    25
100
AcDbCircle
 10
125.3777320005
 20
413.3778078799
 30
0.0
 40
62.5
  0
LWPOLYLINE
  5
AB
330
1F
100
AcDbEntity
  8
0
  6
Continuous
 62
     7
370
    25
100
AcDbPolyline
 90
       51
 70
   128
 43
0.0
 10
225.3777334906
 20
475.8778078799
 10
228.2092595912
 20
475.749393398
 10
231.0291553355
 20
475.3646826689
 10
233.8258276201
 20
474.7252552156
 10
236.5877876497
 20
473.8337373678
 10
239.3036807395
 20
472.6937910859
 10
241.9623459197
 20
471.3101065104
 10
244.5528680898
 20
469.6883609836
 10
247.0645854689
 20
467.8352265005
 10
249.487193904
 20
465.7583138291
 10
251.810731969
 20
463.4661576097
 10
254.02565547
 20
460.9681791012
 10
256.1228448964
 20
458.2746414785
 10
258.0937022782
 20
455.3966125791
 10
259.9301213838
 20
452.3459201996
 10
261.6245622254
 20
449.1350999419
 10
263.170065961
 20
445.777343059
 10
264.5602548934
 20
442.2864517514
 10
265.7894367791
 20
438.6767665242
 10
266.8525750257
 20
434.9631233458
 10
267.7452588893
 20
431.1607828681
 10
268.4638673879
 20
427.2853661646
 10
269.0054202891
 20
423.3528016452
 10
269.3676824189
 20
419.3792468254
 10
269.5491934634
 20
415.3810315151
 10
269.5491934634
 20
411.3745842446
 10
269.3676824189
 20
407.3763689344
 10
269.0054202891
 20
403.4028141145
 10
268.4638673879
 20
399.4702495952
 10
267.7452588893
 20
395.5948328917
 10
266.8525750257
 20
391.792492414
 10
265.7894367791
 20
388.0788492356
 10
264.5602548934
 20
384.4691640083
 10
263.170065961
 20
380.9782727008
 10
261.6245622254
 20
377.6205158178
 10
259.9301213838
 20
374.4096955602
 10
258.0937022782
 20
371.3590031807
 10
256.1228448964
 20
368.4809742813
 10
254.02565547
 20
365.7874366586
 10
251.810731969
 20
363.2894581501
 10
249.487193904
 20
360.9973019306
 10
247.0645854689
 20
358.9203892593
 10
244.5528680898
 20
357.0672547762
 10
241.9623459197
 20
355.4455092494
 10
239.3036807395
 20
354.0618246739
 10
236.5877876497
 20
352.9218783919
 10
233.8258276201
 20
352.0303605442
 10
231.0291553355
 20
351.3909330909
 10
228.2092595912
 20
351.0062223618
 10
225.3777334906
 20
350.8778078799
 10
225.3777334906
 20
350.8778078799
  0
LWPOLYLINE
  5
AC
330
1F
100
AcDbEntity
  8
0
  6
Continuous
 62
     1
370
    25
100
AcDbPolyline
 90
       26
 70
   128
 43
0.0
 10
187.8777320005
 20
413.3778078799
 10
187.7869317747
 20
409.3734192979
 10
187.5148999013
 20
405.3854853232
 10
187.0627539672
 20
401.4303939734
 10
186.4323566176
 20
397.5243972932
 10
185.6262932039
 20
393.6835447644
 10
184.6478792347
 20
389.923620442
 10
183.501134298
 20
386.2600749676
 10
182.1907671608
 20
382.7079603766
 10
180.7221683181
 20
379.2818760817
 10
179.1013727404
 20
375.9958980922
 10
177.3350337959
 20
372.8635324483
 10
175.4304158009
 20
369.8976500277
 10
173.3953418649
 20
367.1104325299
 10
171.2381752647
 20
364.5133389477
 10
168.9677821911
 20
362.117042238
 10
166.5934907712
 20
359.9313846175
 10
164.12505754
 20
357.9653514866
 10
161.572622738
 20
356.2270192747
 10
158.9466805078
 20
354.7235330884
 10
156.2580192901
 20
353.4610657339
 10
153.5176864333
 20
352.444813991
 10
150.73694349
 20
351.6789464597
 10
147.9272159256
 20
351.1666147356
 10
145.1000502772
 20
350.9099198823
 10
143.6835589326
 20
350.8778078799
  0
LWPOLYLINE
  5
AD
330
1F
100
AcDbEntity
  8
0
  6
Continuous
 62
     1
370
    25
100
AcDbPolyline
 90
       26
 70
   128
 43
0.0
 10
143.6835589326
 20
475.8778078799
 10
145.1000502772
 20
475.8456958775
 10
147.9272159256
 20
475.5890010242
 10
150.73694349
 20
475.0766693
 10
153.5176864333
 20
474.3108017687
 10
156.2580192901
 20
473.2945500259
 10
158.9466805078
 20
472.0320826714
 10
161.572622738
 20
470.5285964851
 10
164.12505754
 20
468.7902642731
 10
166.5934907712
 20
466.8242311422
 10
168.9677821911
 20
464.6385735218
 10
171.2381752647
 20
462.242276812
 10
173.3953418649
 20
459.6451832299
 10
175.4304158009
 20
456.8579657321
 10
177.3350337959
 20
453.8920833115
 10
179.1013727404
 20
450.7597176675
 10
180.7221683181
 20
447.4737396781
 10
182.1907671608
 20
444.0476553832
 10
183.501134298
 20
440.4955407922
 10
184.6478792347
 20
436.8319953178
 10
185.6262932039
 20
433.0720709954
 10
186.4323566176
 20
429.2312184666
 10
187.0627539672
 20
425.3252217863
 10
187.5148999013
 20
421.3701304366
 10
187.7869317747
 20
417.3821964619
 10
187.8777320005
 20
413.3778078799
  0
LWPOLYLINE
  5
AE
330
1F
100
AcDbEntity
  8
0
  6
Continuous
 62
     1
370
    25
100
AcDbPolyline
 90
       41
 70
   128
 43
0.0
 10
136.1010369353
 20
463.3400006537
 10
136.0879006303
 20
463.3360108678
 10
133.6149774931
 20
462.4538434987
 10
131.1922153897
 20
461.3271853273
 10
128.8316842608
 20
459.9616429155
 10
126.5451446149
 20
458.3640223686
 10
124.3439875749
 20
456.5422846322
 10
122.2391793478
 20
454.5055007879
 10
120.2412058107
 20
452.263822252
 10
118.3600212886
 20
449.8284174447
 10
116.6049965165
 20
447.2114159112
 10
114.9848770789
 20
444.4258580302
 10
113.507731489
 20
441.4856186454
 10
112.1809218518
 20
438.4053474609
 10
111.0110559009
 20
435.2003926729
 10
110.0039627842
 20
431.8867171501
 10
109.1646595366
 20
428.4808304478
 10
108.4973277963
 20
424.9997021948
 10
108.0052933164
 20
421.4606745486
 10
107.6910036124
 20
417.8813783769
 10
107.5560288943
 20
414.2796452475
 10
107.6010397143
 20
410.6734194179
 10
107.8258106924
 20
407.0806665663
 10
108.2292242415
 20
403.519286247
 10
108.8092687048
 20
400.007020155
 10
109.5630569823
 20
396.5613669102
 10
110.4868293248
 20
393.1994917189
 10
111.5759877927
 20
389.9381434862
 10
112.8251037068
 20
386.7935719286
 10
114.227954901
 20
383.7814418916
 10
115.7775527305
 20
380.9167569821
 10
117.4661774627
 20
378.2137943749
 10
119.2854150638
 20
375.686013544
 10
121.2262032993
 20
373.3460171466
 10
123.2788727127
 20
371.2054504399
 10
125.4331972947
 20
369.2749901061
 10
127.6784442804
 20
367.5642436688
 10
130.0034282237
 20
366.0817383175
 10
132.3965654216
 20
364.8348613028
 10
134.8459344796
 20
363.8298226838
 10
136.1010369353
 20
363.4156151061
  0
INSERT
  5
BA
330
1F
100
AcDbEntity
  8
FORMAT
 62
     7
100
AcDbBlockReference
  2
SW_CENTERMARKSYMBOL_0
 10
125.3777320005
 20
413.3778078799
 30
0.0
  0
LINE
  5
BB
330
1F
100
AcDbEntity
  8
0
  6
Continuous
 62
     7
370
    25
100
AcDbLine
 10
225.3777334906
 20
-124.450042499
 30
0.0
 11
143.6835589326
 21
-124.450042499
 31
0.0
  0
LINE
  5
BC
330
1F
100
AcDbEntity
  8
0
  6
Continuous
 62
     7
370
    25
100
AcDbLine
 10
143.6835589326
 20
-249.450042499
 30
0.0
 11
225.3777334906
 21
-249.450042499
 31
0.0
  0
LINE
  5
BD
330
1F
100
AcDbEntity
  8
0
  6
Continuous
 62
     7
370
    25
100
AcDbLine
 10
125.3777320005
 20
-249.450042499
 30
0.0
 11
143.6835589326
 21
-249.450042499
 31
0.0
  0
LINE
  5
BE
330
1F
100
AcDbEntity
  8
0
  6
Continuous
 62
     7
370
    25
100
AcDbLine
 10
143.6835589326
 20
-124.450042499
 30
0.0
 11
125.3777320005
 21
-124.450042499
 31
0.0
  0
LWPOLYLINE
  5
BF
330
1F
100
AcDbEntity
  8
0
  6
Continuous
 62
     7
370
    25
100
AcDbPolyline
 90
       99
 70
   128
 43
0.0
 10
225.3777334906
 20
-249.450042499
 10
228.2092595912
 20
-249.3216280172
 10
231.0291553355
 20
-248.936917288
 10
233.8258276201
 20
-248.2974898348
 10
236.5877876497
 20
-247.405971987
 10
239.3036807395
 20
-246.2660257051
 10
241.9623459197
 20
-244.8823411295
 10
244.5528680898
 20
-243.2605956027
 10
247.0645854689
 20
-241.4074611196
 10
249.487193904
 20
-239.3305484483
 10
251.810731969
 20
-237.0383922288
 10
254.02565547
 20
-234.5404137203
 10
256.1228448964
 20
-231.8468760977
 10
258.0937022782
 20
-228.9688471982
 10
259.9301213838
 20
-225.9181548187
 10
261.6245622254
 20
-222.7073345611
 10
263.170065961
 20
-219.3495776782
 10
264.5602548934
 20
-215.8586863706
 10
265.7894367791
 20
-212.2490011433
 10
266.8525750257
 20
-208.535357965
 10
267.7452588893
 20
-204.7330174873
 10
268.4638673879
 20
-200.8576007837
 10
269.0054202891
 20
-196.9250362644
 10
269.3676824189
 20
-192.9514814446
 10
269.5491934634
 20
-188.9532661343
 10
269.5491934634
 20
-184.9468188638
 10
269.3676824189
 20
-180.9486035535
 10
269.0054202891
 20
-176.9750487337
 10
268.4638673879
 20
-173.0424842143
 10
267.7452588893
 20
-169.1670675108
 10
266.8525750257
 20
-165.3647270331
 10
265.7894367791
 20
-161.6510838548
 10
264.5602548934
 20
-158.0413986275
 10
263.170065961
 20
-154.5505073199
 10
261.6245622254
 20
-151.192750437
 10
259.9301213838
 20
-147.9819301793
 10
258.0937022782
 20
-144.9312377999
 10
256.1228448964
 20
-142.0532089004
 10
254.02565547
 20
-139.3596712777
 10
251.810731969
 20
-136.8616927693
 10
249.487193904
 20
-134.5695365498
 10
247.0645854689
 20
-132.4926238785
 10
244.5528680898
 20
-130.6394893954
 10
241.9623459197
 20
-129.0177438686
 10
239.3036807395
 20
-127.634059293
 10
236.5877876497
 20
-126.4941130111
 10
233.8258276201
 20
-125.6025951633
 10
231.0291553355
 20
-124.96316771
 10
228.2092595912
 20
-124.5784569809
 10
225.3777334906
 20
-124.450042499
 10
222.5461999394
 20
-124.5784569809
 10
219.726304195
 20
-124.96316771
 10
216.9296319104
 20
-125.6025951633
 10
214.1676793314
 20
-126.4941130111
 10
211.4517862416
 20
-127.634059293
 10
208.7931136108
 20
-129.0177438686
 10
206.2025988914
 20
-130.6394893954
 10
203.6908740617
 20
-132.4926238785
 10
201.2682656265
 20
-134.5695365498
 10
198.9447275616
 20
-136.8616927693
 10
196.7298115111
 20
-139.3596712777
 10
194.6326146341
 20
-142.0532089004
 10
192.6617572523
 20
-144.9312377999
 10
190.8253381468
 20
-147.9819301793
 10
189.1308973051
 20
-151.192750437
 10
187.5854047454
 20
-154.5505073199
 10
186.1952083624
 20
-158.0413986275
 10
184.9660227514
 20
-161.6510838548
 10
183.9028956808
 20
-165.3647270331
 10
183.010196916
 20
-169.1670675108
 10
182.2915995933
 20
-173.0424842143
 10
181.7500504173
 20
-176.9750487337
 10
181.3877733863
 20
-180.9486035535
 10
181.2062660671
 20
-184.9468188638
 10
181.2062660671
 20
-188.9532661343
 10
181.3877733863
 20
-192.9514814446
 10
181.7500504173
 20
-196.9250362644
 10
182.2915995933
 20
-200.8576007837
 10
183.010196916
 20
-204.7330174873
 10
183.9028956808
 20
-208.535357965
 10
184.9660227514
 20
-212.2490011433
 10
186.1952083624
 20
-215.8586863706
 10
187.5854047454
 20
-219.3495776782
 10
189.1308973051
 20
-222.7073345611
 10
190.8253381468
 20
-225.9181548187
 10
192.6617572523
 20
-228.9688471982
 10
194.6326146341
 20
-231.8468760977
 10
196.7298115111
 20
-234.5404137203
 10
198.9447275616
 20
-237.0383922288
 10
201.2682656265
 20
-239.3305484483
 10
203.6908740617
 20
-241.4074611196
 10
206.2025988914
 20
-243.2605956027
 10
208.7931136108
 20
-244.8823411295
 10
211.4517862416
 20
-246.2660257051
 10
214.1676793314
 20
-247.405971987
 10
216.9296319104
 20
-248.2974898348
 10
219.726304195
 20
-248.936917288
 10
222.5461999394
 20
-249.3216280172
 10
225.3777334906
 20
-249.450042499
  0
LWPOLYLINE
  5
C0
330
1F
100
AcDbEntity
  8
0
  6
Continuous
 62
     7
370
    25
100
AcDbPolyline
 90
       90
 70
   128
 43
0.0
 10
225.3777334906
 20
-238.0500432381
 10
222.8289345718
 20
-237.9227537939
 10
220.292838893
 20
-237.5415224859
 10
217.7820751883
 20
-236.9082454869
 10
215.3091529823
 20
-236.0260781178
 10
212.886388085
 20
-234.8994199464
 10
210.5258578874
 20
-233.5338775346
 10
208.2393194057
 20
-231.9362569878
 10
206.0381645776
 20
-230.1145192513
 10
203.9333532072
 20
-228.0777354071
 10
201.9353831626
 20
-225.8360568711
 10
200.0541935183
 20
-223.4006520638
 10
198.2991720058
 20
-220.7836505303
 10
196.6790507055
 20
-217.9980926493
 10
195.201906047
 20
-215.0578532645
 10
193.8750917531
 20
-211.9775820801
 10
192.7052313901
 20
-208.772627292
 10
191.6981364108
 20
-205.4589517692
 10
190.8588359572
 20
-202.053065067
 10
190.1915023543
 20
-198.5719368139
 10
189.6994660116
 20
-195.0329091677
 10
189.3851781703
 20
-191.4536129961
 10
189.2502034522
 20
-187.8518798666
 10
189.2952124096
 20
-184.245654037
 10
189.519981525
 20
-180.6529011855
 10
189.9234006621
 20
-177.0915208662
 10
190.5034432627
 20
-173.5792547742
 10
191.2572334028
 20
-170.1336015293
 10
192.1810010887
 20
-166.771726338
 10
193.2701642133
 20
-163.5103781054
 10
194.5192764021
 20
-160.3658065477
 10
195.9221313215
 20
-157.3536765108
 10
197.4717254258
 20
-154.4889916012
 10
199.1603473641
 20
-151.7860289941
 10
200.9795854307
 20
-149.2582481632
 10
202.9203797198
 20
-146.9182517657
 10
204.9730444766
 20
-144.777685059
 10
207.1273724056
 20
-142.8472247252
 10
209.3726197697
 20
-141.1364782879
 10
211.6976032473
 20
-139.6539729366
 10
214.0907371856
 20
-138.407095922
 10
216.5401081062
 20
-137.4020573029
 10
219.0335045076
 20
-136.6438638696
 10
221.5585062719
 20
-136.1362930665
 10
224.1025368191
 20
-135.8818743655
 10
226.6529227115
 20
-135.8818743655
 10
229.1969532586
 20
-136.1362930665
 10
231.7219624735
 20
-136.6438638696
 10
234.2153588749
 20
-137.4020573029
 10
236.664722345
 20
-138.407095922
 10
239.0578637339
 20
-139.6539729366
 10
241.3828472115
 20
-141.1364782879
 10
243.6280945755
 20
-142.8472247252
 10
245.7824150539
 20
-144.777685059
 10
247.8350872613
 20
-146.9182517657
 10
249.7758740998
 20
-149.2582481632
 10
251.5951121665
 20
-151.7860289941
 10
253.2837415553
 20
-154.4889916012
 10
254.833328209
 20
-157.3536765108
 10
256.2361831285
 20
-160.3658065477
 10
257.4853027679
 20
-163.5103781054
 10
258.5744584418
 20
-166.771726338
 10
259.4982410289
 20
-170.1336015293
 10
260.2520162679
 20
-173.5792547742
 10
260.8320588685
 20
-177.0915208662
 10
261.2354780055
 20
-180.6529011855
 10
261.460247121
 20
-184.245654037
 10
261.5052635289
 20
-187.8518798666
 10
261.3702888108
 20
-191.4536129961
 10
261.0559935189
 20
-195.0329091677
 10
260.5639571763
 20
-198.5719368139
 10
259.8966235734
 20
-202.053065067
 10
259.0573305703
 20
-205.4589517692
 10
258.050235591
 20
-208.772627292
 10
256.880375228
 20
-211.9775820801
 10
255.5535609342
 20
-215.0578532645
 10
254.076408825
 20
-217.9980926493
 10
252.4562949754
 20
-220.7836505303
 10
250.7012660123
 20
-223.4006520638
 10
248.8200838185
 20
-225.8360568711
 10
246.8221137739
 20
-228.0777354071
 10
244.7173024036
 20
-230.1145192513
 10
242.5161475755
 20
-231.9362569878
 10
240.2296090938
 20
-233.5338775346
 10
237.8690714456
 20
-234.8994199464
 10
235.4463139988
 20
-236.0260781178
 10
232.9733917929
 20
-236.9082454869
 10
230.4626280881
 20
-237.5415224859
 10
227.9265249587
 20
-237.9227537939
 10
225.3777334906
 20
-238.0500432381
  0
ARC
  5
C1
330
1F
100
AcDbEntity
  8
0
  6
Continuous
 62
     7
370
    25
100
AcDbCircle
 10
125.3777320005
 20
-186.950042499
 30
0.0
 40
62.5
100
AcDbArc
 50
90.0
 51
270.0
  0
LWPOLYLINE
  5
C2
330
1F
100
AcDbEntity
  8
0
  6
Continuous
 62
     1
370
    25
100
AcDbPolyline
 90
       51
 70
   128
 43
0.0
 10
143.6835589326
 20
-124.450042499
 10
142.2670657254
 20
-124.4821545014
 10
139.4399000771
 20
-124.7388493547
 10
136.6301725126
 20
-125.2511810789
 10
133.8494295693
 20
-126.0170486102
 10
131.1090967126
 20
-127.033300353
 10
128.4204350292
 20
-128.2957677076
 10
125.7944927408
 20
-129.7992538938
 10
123.2420605581
 20
-131.5375861058
 10
120.7736270941
 20
-133.5036192367
 10
118.3993352085
 20
-135.6892768571
 10
116.1289416693
 20
-138.0855735669
 10
113.9717760004
 20
-140.682667149
 10
111.9367020644
 20
-143.4698846469
 10
110.032083138
 20
-146.4357670674
 10
108.2657451249
 20
-149.5681327114
 10
106.6449476845
 20
-152.8541107008
 10
105.1763469792
 20
-156.2801949957
 10
103.8659835673
 20
-159.8323095867
 10
102.7192386306
 20
-163.4958550611
 10
101.7408227987
 20
-167.2557793835
 10
100.9347612477
 20
-171.0966319123
 10
100.3043620355
 20
-175.0026285926
 10
99.852217964
 20
-178.9577199424
 10
99.5801860906
 20
-182.9456539171
 10
99.4893840022
 20
-186.950042499
 10
99.5801860906
 20
-190.954431081
 10
99.852217964
 20
-194.9423650557
 10
100.3043620355
 20
-198.8974564055
 10
100.9347612477
 20
-202.8034530858
 10
101.7408227987
 20
-206.6443056146
 10
102.7192386306
 20
-210.4042299369
 10
103.8659835673
 20
-214.0677754113
 10
105.1763469792
 20
-217.6198900023
 10
106.6449476845
 20
-221.0459742973
 10
108.2657451249
 20
-224.3319522867
 10
110.032083138
 20
-227.4643179307
 10
111.9367020644
 20
-230.4302003512
 10
113.9717760004
 20
-233.217417849
 10
116.1289416693
 20
-235.8145114312
 10
118.3993352085
 20
-238.210808141
 10
120.7736270941
 20
-240.3964657614
 10
123.2420605581
 20
-242.3624988923
 10
125.7944927408
 20
-244.1008311043
 10
128.4204350292
 20
-245.6043172905
 10
131.1090967126
 20
-246.8667846451
 10
133.8494295693
 20
-247.8830363879
 10
136.6301725126
 20
-248.6489039192
 10
139.4399000771
 20
-249.1612356434
 10
142.2670657254
 20
-249.4179304967
 10
143.6835589326
 20
-249.450042499
  0
INSERT
  5
CE
330
1F
100
AcDbEntity
  8
FORMAT
 62
     7
100
AcDbBlockReference
  2
SW_CENTERMARKSYMBOL_1
 10
125.3777320005
 20
-186.950042499
 30
0.0
  0
LINE
  5
CF
330
1F
100
AcDbEntity
  8
0
  6
Continuous
 62
     7
370
    25
100
AcDbLine
 10
331.3449955258
 20
-218.3353537722
 30
0.0
 11
331.3449955258
 21
-310.6956342843
 31
0.0
  0
LINE
  5
D0
330
1F
100
AcDbEntity
  8
0
  6
Continuous
 62
     7
370
    25
100
AcDbLine
 10
456.3449933865
 20
-310.6956342843
 30
0.0
 11
456.3449933865
 21
-218.3353537722
 31
0.0
  0
LINE
  5
D1
330
1F
100
AcDbEntity
  8
0
  6
Continuous
 62
     7
370
    25
100
AcDbLine
 10
410.4290839222
 20
-43.4719849335
 30
0.0
 11
352.662581743
 21
-143.5265013898
 31
0.0
  0
LINE
  5
D2
330
1F
100
AcDbEntity
  8
0
  6
Continuous
 62
     7
370
    25
100
AcDbLine
 10
460.9157558872
 20
-206.0264947226
 30
0.0
 11
518.6822633348
 21
-105.971975225
 31
0.0
  0
SPLINE
  5
D3
330
1F
100
AcDbEntity
  8
0
  6
Continuous
 62
     7
370
    25
100
AcDbSpline
210
0.0
220
0.0
230
1.0
 70
     8
 71
     3
 72
    22
 73
    18
 74
     0
 42
0.000000001
 43
0.00000001
 40
0.0
 40
0.0
 40
0.0
 40
0.0
 40
0.0390438095470753
 40
0.1061880702091077
 40
0.1734256625817402
 40
0.2408042681921665
 40
0.3083745395675204
 40
0.3761832355842566
 40
0.4442708877154551
 40
0.5126691803739214
 40
0.5813962485478291
 40
0.6504535583145659
 40
0.7198200125259412
 40
0.7894478966148708
 40
0.859259096788515
 40
0.9291085921578954
 40
0.9999999999999999
 40
0.9999999999999999
 40
0.9999999999999999
 40
0.9999999999999999
 10
352.6625817430098
 20
-143.5265013897574
 30
0.0
 10
352.1440495981329
 20
-144.4361758663966
 30
0.0
 10
350.7337894712499
 20
-146.9102320180212
 30
0.0
 10
348.5533124978507
 20
-151.0176985637702
 30
0.0
 10
346.1646894842444
 20
-155.863791096971
 30
0.0
 10
343.9344636097045
 20
-160.7854984583168
 30
0.0
 10
341.8641749642832
 20
-165.7768700334727
 30
0.0
 10
339.9592598512644
 20
-170.8340604204787
 30
0.0
 10
338.2248327590672
 20
-175.9524469221616
 30
0.0
 10
336.6668971628065
 20
-181.1270676596281
 30
0.0
 10
335.2920463907897
 20
-186.3521699412422
 30
0.0
 10
334.1073788132076
 20
-191.6208811078026
 30
0.0
 10
333.1209223341218
 20
-196.9247875568485
 30
0.0
 10
332.3390654009071
 20
-202.2537522215762
 30
0.0
 10
331.7753869385304
 20
-207.5939222228453
 30
0.0
 10
331.4137726242182
 20
-212.9606302672188
 30
0.0
 10
331.3680340935287
 20
-216.5349589547596
 30
0.0
 10
331.3449955257831
 20
-218.3353537722451
 30
0.0
  0
SPLINE
  5
D4
330
1F
100
AcDbEntity
  8
0
  6
Continuous
 62
     7
370
    25
100
AcDbSpline
210
0.0
220
0.0
230
1.0
 70
     8
 71
     3
 72
    20
 73
    16
 74
     0
 42
0.000000001
 43
0.00000001
 40
0.0
 40
0.0
 40
0.0
 40
0.0
 40
0.053603311729171
 40
0.1384268622404406
 40
0.220649183622238
 40
0.301060776589086
 40
0.3803599976288028
 40
0.4591392710220934
 40
0.5378722090840014
 40
0.6169048707635814
 40
0.6963809322233723
 40
0.7764448129661929
 40
0.857131689435221
 40
0.9383862546134141
 40
1.0
 40
1.0
 40
1.0
 40
1.0
 10
456.3453437321775
 20
-218.3704250404231
 30
0.0
 10
456.3451753631316
 20
-218.3732949068973
 30
0.0
 10
456.3447405616619
 20
-218.380706139492
 30
0.0
 10
456.3603655329425
 20
-218.1547842930654
 30
0.0
 10
456.413141917799
 20
-217.7229836006537
 30
0.0
 10
456.5173180442849
 20
-217.0909058485877
 30
0.0
 10
456.6856399982002
 20
-216.2824048844257
 30
0.0
 10
456.9294070827142
 20
-215.3092720498358
 30
0.0
 10
457.2575979230224
 20
-214.1889783682963
 30
0.0
 10
457.6764491392731
 20
-212.9410246130176
 30
0.0
 10
458.189354308982
 20
-211.5880438271763
 30
0.0
 10
458.7954994353458
 20
-210.1547494080866
 30
0.0
 10
459.4936453578726
 20
-208.6690971520477
 30
0.0
 10
460.2036253938268
 20
-207.2797115249942
 30
0.0
 10
460.7052800099078
 20
-206.4054555029413
 30
0.0
 10
460.9216248358881
 20
-206.0284216615491
 30
0.0
  0
LWPOLYLINE
  5
D5
330
1F
100
AcDbEntity
  8
0
  6
Continuous
 62
     7
370
    25
100
AcDbPolyline
 90
       99
 70
   128
 43
0.0
 10
349.650820632
 20
-285.1828807899
 10
352.5731537037
 20
-283.6006924416
 10
355.6650804255
 20
-282.1298420984
 10
358.9138958275
 20
-280.7763746478
 10
362.3062508831
 20
-279.5458521619
 10
365.8282074979
 20
-278.4433312773
 10
369.4652882294
 20
-277.4733405749
 10
373.2025533369
 20
-276.6398695549
 10
377.0246416112
 20
-275.9463389839
 10
380.9158480828
 20
-275.3956016551
 10
384.8601846083
 20
-274.9899195777
 10
388.8414391389
 20
-274.730960176
 10
392.8432534291
 20
-274.6197879249
 10
396.8491875737
 20
-274.6568575073
 10
400.8427753258
 20
-274.8420183762
 10
404.8076057564
 20
-275.174510192
 10
408.7273917427
 20
-275.6529658649
 10
412.5860200175
 20
-276.2754191573
 10
416.3676394147
 20
-277.0393130482
 10
420.0567069668
 20
-277.9415080966
 10
423.6380669304
 20
-278.978294607
 10
427.0969988601
 20
-280.1454173404
 10
430.419292024
 20
-281.4380758948
 10
433.5912928189
 20
-282.8509612009
 10
436.5999686489
 20
-284.3782650267
 10
439.4329546824
 20
-286.0137130523
 10
442.0786091695
 20
-287.7505846386
 10
444.5260634916
 20
-289.5817417202
 10
446.7652564058
 20
-291.4996607397
 10
448.786991338
 20
-293.4964596397
 10
450.5829528468
 20
-295.5639347392
 10
452.1457698434
 20
-297.6935881061
 10
453.4690162505
 20
-299.8766705159
 10
454.5472538076
 20
-302.1042092045
 10
455.3760531443
 20
-304.3670534883
 10
455.9520082684
 20
-306.6559013764
 10
456.272751054
 20
-308.9613505128
 10
456.3369644119
 20
-311.2739270699
 10
456.1443875585
 20
-313.5841252857
 10
455.6958081131
 20
-315.8824546049
 10
454.9930700002
 20
-318.1594716134
 10
454.0390615962
 20
-320.4058172947
 10
452.8377012408
 20
-322.61226189
 10
451.393930652
 20
-324.7697391133
 10
449.7136754133
 20
-326.8693811275
 10
447.8038462908
 20
-328.9025634037
 10
445.6722878666
 20
-330.8609282923
 10
443.3277594413
 20
-332.7364295027
 10
440.7798958502
 20
-334.5213608059
 10
438.0391682803
 20
-336.2083877788
 10
435.1168352086
 20
-337.7905761271
 10
432.0249084867
 20
-339.2614264703
 10
428.7760930848
 20
-340.6148939209
 10
425.3837380292
 20
-341.8454164067
 10
421.8617814144
 20
-342.9479372914
 10
418.2247006829
 20
-343.9179279938
 10
414.4874355754
 20
-344.7513990138
 10
410.6653473011
 20
-345.4449295848
 10
406.7741408294
 20
-345.9956669136
 10
402.829804304
 20
-346.401348991
 10
398.8485497733
 20
-346.6603083927
 10
394.8467354832
 20
-346.7714806438
 10
390.8408013386
 20
-346.7344110613
 10
386.8472135864
 20
-346.5492501925
 10
382.8823831559
 20
-346.2167583766
 10
378.9625971696
 20
-345.7383027038
 10
375.1039688948
 20
-345.1158494113
 10
371.3223494976
 20
-344.3519555204
 10
367.6332819455
 20
-343.4497604721
 10
364.0519219819
 20
-342.4129739617
 10
360.5929900522
 20
-341.2458512282
 10
357.2706968882
 20
-339.9531926739
 10
354.0986960933
 20
-338.5403073678
 10
351.0900202633
 20
-337.013003542
 10
348.2570342299
 20
-335.3775555164
 10
345.6113797428
 20
-333.6406839301
 10
343.1639254207
 20
-331.8095268484
 10
340.9247325065
 20
-329.891607829
 10
338.9029975742
 20
-327.894808929
 10
337.1070360655
 20
-325.8273338294
 10
335.5442190689
 20
-323.6976804626
 10
334.2209726618
 20
-321.5145980528
 10
333.1427351047
 20
-319.2870593642
 10
332.313935768
 20
-317.0242150804
 10
331.7379806438
 20
-314.7353671923
 10
331.4172378583
 20
-312.4299180558
 10
331.3530245004
 20
-310.1173414987
 10
331.5456013538
 20
-307.807143283
 10
331.9941807992
 20
-305.5088139638
 10
332.696918912
 20
-303.2317969553
 10
333.6509273161
 20
-300.985451274
 10
334.8522876715
 20
-298.7790066787
 10
336.2960582603
 20
-296.6215294554
 10
337.9763134989
 20
-294.5218874412
 10
339.8861426215
 20
-292.488705165
 10
342.0177010457
 20
-290.5303402764
 10
344.362229471
 20
-288.654839066
 10
346.9100930621
 20
-286.8699077628
 10
349.650820632
 20
-285.1828807899
  0
LWPOLYLINE
  5
D6
330
1F
100
AcDbEntity
  8
0
  6
Continuous
 62
     7
370
    25
100
AcDbPolyline
 90
       90
 70
   128
 43
0.0
 10
357.7118374149
 20
-289.8364067256
 10
355.2530493771
 20
-291.3597549812
 10
352.9865234085
 20
-292.9794329043
 10
350.9235533826
 20
-294.6873726297
 10
349.0744163805
 20
-296.4750652951
 10
347.4483211592
 20
-298.3336029554
 10
346.0533750602
 20
-300.2537280994
 10
344.896523094
 20
-302.2258748983
 10
343.983530159
 20
-304.2402159665
 10
343.3189454808
 20
-306.2867193874
 10
342.906078904
 20
-308.3551867297
 10
342.7469850876
 20
-310.4353138753
 10
342.8424582362
 20
-312.5167396803
 10
343.1920255148
 20
-314.5890908358
 10
343.7939444148
 20
-316.6420457357
 10
344.6452159243
 20
-318.6653755352
 10
345.7415937484
 20
-320.6490011765
 10
347.0776225044
 20
-322.5830397695
 10
348.646646283
 20
-324.4578551538
 10
350.440843551
 20
-326.264108462
 10
352.451278518
 20
-327.9927999379
 10
354.6679366977
 20
-329.635316838
 10
357.0797713352
 20
-331.1834784817
 10
359.6747682738
 20
-332.6295706565
 10
362.4399999556
 20
-333.9663889573
 10
365.3616873244
 20
-335.1872745227
 10
368.425280498
 20
-336.2861423571
 10
371.615511122
 20
-337.2575206788
 10
374.916490493
 20
-338.0965680272
 10
378.3117708033
 20
-338.7991055776
 10
381.7844327275
 20
-339.3616342484
 10
385.3171828867
 20
-339.7813483876
 10
388.8924183864
 20
-340.0561608639
 10
392.4923255975
 20
-340.1846992647
 10
396.0989736702
 20
-340.1663264257
 10
399.6943896078
 20
-340.0011290257
 10
403.2606689021
 20
-339.6899358344
 10
406.7800348028
 20
-339.2342926217
 10
410.2349621234
 20
-338.636472802
 10
413.6082351933
 20
-337.8994531039
 10
416.8830479568
 20
-337.0269044453
 10
420.0430869493
 20
-336.0231744466
 10
423.0726076886
 20
-334.8932646195
 10
425.9565183103
 20
-333.6428033759
 10
428.6804504433
 20
-332.2780203181
 10
431.2308344489
 20
-330.8057149706
 10
433.5949642046
 20
-329.2332224217
 10
435.7610613126
 20
-327.568376257
 10
437.7183346156
 20
-325.8194711607
 10
439.4570343623
 20
-323.9952194806
 10
440.9684967411
 20
-322.1047103129
 10
442.2451906369
 20
-320.1573612201
 10
443.2807571441
 20
-318.1628741318
 10
444.0700398591
 20
-316.131187443
 10
444.6091006857
 20
-314.0724182285
 10
444.895261982
 20
-311.9968287879
 10
444.927088121
 20
-309.9147551737
 10
444.7044289545
 20
-307.8365729761
 10
444.2283882031
 20
-305.7726334543
 10
443.5013432125
 20
-303.7332201975
 10
442.526909392
 20
-301.7284951405
 10
441.3099468001
 20
-299.7684415382
 10
439.8565166805
 20
-297.8628267095
 10
438.1738577543
 20
-296.0211457716
 10
436.270356586
 20
-294.2525710776
 10
434.1554916065
 20
-292.565916861
 10
431.8398034794
 20
-290.9695825901
 10
429.3348269408
 20
-289.4715227445
 10
426.6530417386
 20
-288.0792002447
 10
423.8078107286
 20
-286.7995507157
 10
420.8133048007
 20
-285.6389513133
 10
417.6844432809
 20
-284.6031832774
 10
414.4368158933
 20
-283.6974051301
 10
411.0865997836
 20
-282.9261321462
 10
407.6504870796
 20
-282.2932067006
 10
404.1455973043
 20
-281.8017781185
 10
400.5893897897
 20
-281.4542977339
 10
396.9995833342
 20
-281.2524968394
 10
393.3940574214
 20
-281.1973813639
 10
389.7907810966
 20
-281.2892242691
 10
386.2077023318
 20
-281.5275670706
 10
382.6626703175
 20
-281.911223639
 10
379.1733511685
 20
-282.4382832416
 10
375.7571225574
 20
-283.1061196664
 10
372.4310078597
 20
-283.9114049084
 10
369.2115773722
 20
-284.8501296983
 10
366.1148673124
 20
-285.9176137676
 10
363.1563083658
 20
-287.1085410139
 10
360.350639911
 20
-288.4169786047
 10
357.7118374149
 20
-289.8364067256
  0
LWPOLYLINE
  5
D7
330
1F
100
AcDbEntity
  8
0
  6
Continuous
 62
     7
370
    25
100
AcDbPolyline
 90
       99
 70
   128
 43
0.0
 10
420.3614998043
 20
-49.2092265848
 10
422.4544938621
 20
-50.4178559958
 10
424.7204928305
 20
-51.7263635562
 10
427.150182256
 20
-53.1293706081
 10
429.733581238
 20
-54.6211016081
 10
432.4600714049
 20
-56.195425194
 10
435.3184443291
 20
-57.8458815647
 10
438.2969673818
 20
-59.5656900856
 10
441.3833837324
 20
-61.347779708
 10
444.5650256189
 20
-63.1848178699
 10
447.8288143473
 20
-65.0692713313
 10
451.1613393173
 20
-66.9933909672
 10
454.5488949005
 20
-68.9492634766
 10
457.9775752712
 20
-70.9288600561
 10
461.4332849426
 20
-72.9240546463
 10
464.9018283295
 20
-74.9266148074
 10
468.3689571627
 20
-76.9283507675
 10
471.8204020999
 20
-78.9210119968
 10
475.2419978488
 20
-80.8964202909
 10
478.6196923866
 20
-82.8464629212
 10
481.9395759362
 20
-84.7631215266
 10
485.1880423095
 20
-86.638504439
 10
488.3517210774
 20
-88.4649291809
 10
491.4176066445
 20
-90.234887485
 10
494.3731194935
 20
-91.9410928221
 10
497.2061055269
 20
-93.5765408478
 10
499.904922995
 20
-95.1345109227
 10
502.458492545
 20
-96.6085950063
 10
504.8562998552
 20
-97.9927478383
 10
507.0885003438
 20
-99.2812865593
 10
509.1459382666
 20
-100.4688895639
 10
511.0201282774
 20
-101.5506953487
 10
512.7033983329
 20
-102.5222633554
 10
514.1888192276
 20
-103.379594107
 10
515.4702757173
 20
-104.1191581037
 10
516.5425178852
 20
-104.7379376466
 10
517.4011387515
 20
-105.2333530616
 10
518.0426058833
 20
-105.6034026216
 10
518.4642877368
 20
-105.8465560769
 10
518.664437852
 20
-105.9618063585
 10
518.6422475363
 20
-105.9486878283
 10
518.3978037174
 20
-105.8072580188
 10
517.9321152857
 20
-105.5380824207
 10
517.2470867518
 20
-105.1422801032
 10
516.3455393204
 20
-104.6214750441
 10
515.2311766457
 20
-103.9778128498
 10
513.9085742952
 20
-103.2139242526
 10
512.3831718462
 20
-102.3329509605
 10
510.6612360086
 20
-101.3385243601
 10
508.7498474526
 20
-100.2347335737
 10
506.6568481265
 20
-99.0260950367
 10
504.3908491581
 20
-97.7175874762
 10
501.9611597326
 20
-96.3145804244
 10
499.3777660189
 20
-94.8228585505
 10
496.651275852
 20
-93.2485106297
 10
493.7928976594
 20
-91.5980573003
 10
490.8143798752
 20
-89.8782579055
 10
487.7279582562
 20
-88.0961834919
 10
484.5463163697
 20
-86.2591209952
 10
481.2825276413
 20
-84.3746675338
 10
477.9500079397
 20
-82.4505570239
 10
474.5624470881
 20
-80.4946875559
 10
471.1337667174
 20
-78.5150909764
 10
467.6780570459
 20
-76.5199085536
 10
464.2095136591
 20
-74.5173362251
 10
460.7423927284
 20
-72.5156078704
 10
457.2909425228
 20
-70.5229253476
 10
453.8693441398
 20
-68.5475307416
 10
450.4916575046
 20
-66.5974835492
 10
447.1717634182
 20
-64.6808310266
 10
443.9233049474
 20
-62.8054435521
 10
440.7596288137
 20
-60.979029457
 10
437.6937327099
 20
-59.2090772356
 10
434.7382224951
 20
-57.5028582104
 10
431.9052364617
 20
-55.8674101847
 10
429.2064163594
 20
-54.3094537978
 10
426.6528573461
 20
-52.8353636316
 10
424.2550474017
 20
-51.4512001528
 10
422.0228390106
 20
-50.1626659939
 10
419.9654116245
 20
-48.9750569066
 10
418.0912137112
 20
-47.8932556838
 10
416.4079462899
 20
-46.921673989
 10
414.9225306635
 20
-46.0643645309
 10
413.6410662712
 20
-45.3247929288
 10
412.5688241033
 20
-44.7060255533
 10
411.7102032371
 20
-44.2105979709
 10
411.0687361053
 20
-43.8405484109
 10
410.6470595201
 20
-43.5973919142
 10
410.4469041366
 20
-43.4821325066
 10
410.4690944523
 20
-43.4952510368
 10
410.7135382711
 20
-43.6367051811
 10
411.1792319712
 20
-43.9058655704
 10
411.8642552368
 20
-44.3016587619
 10
412.7658079366
 20
-44.8224607796
 10
413.8801706112
 20
-45.4661473088
 10
415.2027676934
 20
-46.2300267799
 10
416.7281701423
 20
-47.111000072
 10
418.45010598
 20
-48.1054266724
 10
420.3614998043
 20
-49.2092265848
  0
LWPOLYLINE
  5
D8
330
1F
100
AcDbEntity
  8
0
  6
Continuous
 62
     7
370
    25
100
AcDbPolyline
 90
       90
 70
   128
 43
0.0
 10
428.4225165872
 20
-53.8627525205
 10
426.7102508171
 20
-52.8739443058
 10
425.1865316079
 20
-51.9939773059
 10
423.8589480267
 20
-51.2272525229
 10
422.7341144944
 20
-50.5775717896
 10
421.8176286393
 20
-50.0481742662
 10
421.1140660288
 20
-49.6417090576
 10
420.6269274853
 20
-49.3601743712
 10
420.358639087
 20
-49.2049905147
 10
420.3105363619
 20
-49.1769603451
 10
420.4828642888
 20
-49.2761719253
 10
420.8747535888
 20
-49.5021612524
 10
421.4842655069
 20
-49.8537860179
 10
422.3083536162
 20
-50.3293130506
 10
423.3429178186
 20
-50.9263521511
 10
424.5827990764
 20
-51.6419564648
 10
426.0218281448
 20
-52.4725106879
 10
427.6528268884
 20
-53.4139447469
 10
429.4676774293
 20
-54.4615303719
 10
431.4573307073
 20
-55.6100442054
 10
433.6118789203
 20
-56.8537731206
 10
435.9205884513
 20
-58.1865149739
 10
438.3719568327
 20
-59.6016419071
 10
440.9537697103
 20
-61.0920906452
 10
443.6531653804
 20
-62.6504484226
 10
446.456701962
 20
-64.2689613427
 10
449.3504011893
 20
-65.9395353207
 10
452.3198560841
 20
-67.653865171
 10
455.3502632243
 20
-69.4033923923
 10
458.4265393066
 20
-71.1794272219
 10
461.5333428781
 20
-72.973130756
 10
464.6552086796
 20
-74.7755316809
 10
467.7765753043
 20
-76.5776699933
 10
470.8818945165
 20
-78.3705384457
 10
473.9557010569
 20
-80.1452627712
 10
476.9826771803
 20
-81.8929503518
 10
479.9477395831
 20
-83.6049168313
 10
482.8361210635
 20
-85.2726237635
 10
485.6334311068
 20
-86.8877744228
 10
488.325732277
 20
-88.4423274985
 10
490.8996087054
 20
-89.9285062183
 10
493.3422451159
 20
-91.3389413186
 10
495.6414663377
 20
-92.6665843511
 10
497.7858189646
 20
-93.9048278409
 10
499.7646214047
 20
-95.0475037673
 10
501.5680165638
 20
-96.0889139853
 10
503.1870166266
 20
-97.0238804204
 10
504.6135610081
 20
-97.8477359478
 10
505.8405347936
 20
-98.5563837111
 10
506.86182669
 20
-99.1463001714
 10
507.6723580021
 20
-99.6145153408
 10
508.2680799982
 20
-99.9587390218
 10
508.646029228
 20
-100.177210245
 10
508.8043222543
 20
-100.2688889099
 10
508.7421714578
 20
-100.2332763248
 10
508.4598876716
 20
-100.0705749062
 10
507.9588722783
 20
-99.7815862891
 10
507.2416303812
 20
-99.3677554366
 10
506.3117154865
 20
-98.8311447922
 10
505.1737861382
 20
-98.1744061537
 10
503.8334992333
 20
-97.4008407512
 10
502.2975271451
 20
-96.5142874695
 10
500.5735353314
 20
-95.5191707658
 10
498.6700901394
 20
-94.4204352718
 10
496.5966950247
 20
-93.2235788889
 10
494.3636792579
 20
-91.9345276922
 10
491.9821551192
 20
-90.5597328978
 10
489.463999788
 20
-89.1060387416
 10
486.8217483297
 20
-87.5806815313
 10
484.0685634026
 20
-85.9912599968
 10
481.2181707207
 20
-84.3456980337
 10
478.2847652109
 20
-82.6522026905
 10
475.2829698539
 20
-80.9191795751
 10
472.2277237319
 20
-79.1552898899
 10
469.1342622721
 20
-77.3693173608
 10
466.0179822452
 20
-75.5701511255
 10
462.8944147647
 20
-73.7667579829
 10
459.7791344082
 20
-71.9681299242
 10
456.6876419965
 20
-70.1832164505
 10
453.6353540565
 20
-68.420918496
 10
450.6374697953
 20
-66.6900055353
 10
447.7089197342
 20
-64.9991163459
 10
444.8643051218
 20
-63.3566631911
 10
442.1177899335
 20
-61.7708302981
 10
439.4830534558
 20
-60.2495160615
 10
436.973237603
 20
-58.8003147936
 10
434.600831013
 20
-57.4304132968
 10
432.377658511
 20
-56.1466760348
 10
430.3147915473
 20
-54.955471744
 10
428.4225165872
 20
-53.8627525205
  0
LWPOLYLINE
  5
D9
330
1F
100
AcDbEntity
  8
0
  6
Continuous
 62
     1
370
    25
100
AcDbPolyline
 90
       14
 70
   128
 43
0.0
 10
438.0391682803
 20
-192.8226002778
 10
440.7798958502
 20
-194.5096272507
 10
443.3277594413
 20
-196.2945585539
 10
445.6722878666
 20
-198.1700597643
 10
447.8038462908
 20
-200.1284246529
 10
449.7136754133
 20
-202.1616069291
 10
451.393930652
 20
-204.2612489433
 10
452.8377012408
 20
-206.4187261666
 10
454.0390615962
 20
-208.6251707619
 10
454.9930700002
 20
-210.8715164432
 10
455.6958081131
 20
-213.1485334517
 10
456.1443875585
 20
-215.4468627709
 10
456.3369644119
 20
-217.7570609866
 10
456.3449933865
 20
-218.3353537722
  0
LWPOLYLINE
  5
DA
330
1F
100
AcDbEntity
  8
0
  6
Continuous
 62
     1
370
    25
100
AcDbPolyline
 90
       38
 70
   128
 43
0.0
 10
331.3449955258
 20
-218.3353537722
 10
331.4172378583
 20
-216.6010700008
 10
331.7379806438
 20
-214.2956208643
 10
332.313935768
 20
-212.0067729762
 10
333.1427351047
 20
-209.7439286924
 10
334.2209726618
 20
-207.5163900038
 10
335.5442190689
 20
-205.333307594
 10
337.1070360655
 20
-203.2036542271
 10
338.9029975742
 20
-201.1361791276
 10
340.9247325065
 20
-199.1393802276
 10
343.1639254207
 20
-197.2214612081
 10
345.6113797428
 20
-195.3903041265
 10
348.2570342299
 20
-193.6534325402
 10
351.0900202633
 20
-192.0179845146
 10
354.0986960933
 20
-190.4906806888
 10
357.2706968882
 20
-189.0777953827
 10
360.5929900522
 20
-187.7851368284
 10
364.0519219819
 20
-186.6180140949
 10
367.6332819455
 20
-185.5812275845
 10
371.3223494976
 20
-184.6790325361
 10
375.1039688948
 20
-183.9151386453
 10
378.9625971696
 20
-183.2926853528
 10
382.8823831559
 20
-182.81422968
 10
386.8472135864
 20
-182.4817378641
 10
390.8408013386
 20
-182.2965769952
 10
394.8467354832
 20
-182.2595074128
 10
398.8485497733
 20
-182.3706796639
 10
402.829804304
 20
-182.6296390656
 10
406.7741408294
 20
-183.035321143
 10
410.6653473011
 20
-183.5860584718
 10
414.4874355754
 20
-184.2795890428
 10
418.2247006829
 20
-185.1130600628
 10
421.8617814144
 20
-186.0830507652
 10
425.3837380292
 20
-187.1855716499
 10
428.7760930848
 20
-188.4160941357
 10
432.0249084867
 20
-189.7695615863
 10
435.1168352086
 20
-191.2404119295
 10
438.0391682803
 20
-192.8226002778
  0
LWPOLYLINE
  5
DB
330
1F
100
AcDbEntity
  8
0
  6
Continuous
 62
     1
370
    25
100
AcDbPolyline
 90
       16
 70
   128
 43
0.0
 10
438.0391682803
 20
-192.8226002778
 10
440.8064931458
 20
-194.4201308688
 10
443.4340327198
 20
-195.9369380374
 10
445.9109891773
 20
-197.3668006476
 10
448.2271876765
 20
-198.7038268843
 10
450.3731076393
 20
-199.9425331453
 10
452.3399324719
 20
-201.0778240755
 10
454.119579199
 20
-202.1050431317
 10
455.7047340253
 20
-203.0199626907
 10
457.0888852627
 20
-203.8188213085
 10
458.2663470379
 20
-204.4983374013
 10
459.2322737805
 20
-205.0557206472
 10
459.9827010524
 20
-205.4886773053
 10
460.5145468654
 20
-205.7954413872
 10
460.8256222175
 20
-205.9747351094
 10
460.9157558872
 20
-206.0264947226
  0
LWPOLYLINE
  5
DC
330
1F
100
AcDbEntity
  8
0
  6
Continuous
 62
     1
370
    25
100
AcDbPolyline
 90
       36
 70
   128
 43
0.0
 10
352.662581743
 20
-143.5265013898
 10
352.6636877685
 20
-143.5271620157
 10
352.7970723366
 20
-143.6044779763
 10
353.152323019
 20
-143.8098902429
 10
353.7279786289
 20
-144.1425499996
 10
354.5216749503
 20
-144.6010895483
 10
355.5301466315
 20
-145.1836242632
 10
356.7492560785
 20
-145.8877572043
 10
358.1739881455
 20
-146.7106126081
 10
359.7984923233
 20
-147.6487963219
 10
361.6160896533
 20
-148.6984374447
 10
363.6193122408
 20
-149.8552567709
 10
365.7999309138
 20
-151.1144778215
 10
368.1489815643
 20
-152.4709211435
 10
370.6568138811
 20
-153.9190370124
 10
373.3131203256
 20
-155.4528582875
 10
376.1069901323
 20
-157.0660817816
 10
379.0269369681
 20
-158.7520796725
 10
382.0609674202
 20
-160.5039147115
 10
385.1966086557
 20
-162.3144124693
 10
388.420979544
 20
-164.176117231
 10
391.7208275355
 20
-166.0813862932
 10
395.08259715
 20
-168.0223808387
 10
398.4924721237
 20
-169.9911237315
 10
401.9364359953
 20
-171.9795375402
 10
405.4003432288
 20
-173.9794430152
 10
408.8699560919
 20
-175.9826260083
 10
412.3310197302
 20
-177.9808504006
 10
415.7693135336
 20
-179.9659060078
 10
419.1707025028
 20
-181.929635195
 10
422.5212136404
 20
-183.8639769814
 10
425.8070794149
 20
-185.7609738812
 10
429.0147943955
 20
-187.6128350191
 10
432.1311817653
 20
-189.4119410698
 10
435.1434325041
 20
-191.1509155476
 10
438.0391682803
 20
-192.8226002778
  0
ENDSEC
  0
SECTION
  2
OBJECTS
  0
DICTIONARY
  5
C
330
0
100
AcDbDictionary
281
     1
  3
ACAD_GROUP
350
D
  3
ACAD_LAYOUT
350
1A
  3
ACAD_MLINESTYLE
350
17
  3
ACAD_PLOTSETTINGS
350
19
  3
ACAD_PLOTSTYLENAME
350
E
  3
ACAD_SCALELIST
350
47
  0
DICTIONARY
  5
D
102
{ACAD_REACTORS
330
C
102
}
330
C
100
AcDbDictionary
281
     1
  0
DICTIONARY
  5
1A
102
{ACAD_REACTORS
330
C
102
}
330
C
100
AcDbDictionary
281
     1
  3
Layout1
350
1E
  3
Layout2
350
26
  3
Model
350
22
  0
DICTIONARY
  5
17
102
{ACAD_REACTORS
330
C
102
}
330
C
100
AcDbDictionary
281
     1
  3
Standard
350
18
  0
DICTIONARY
  5
19
102
{ACAD_REACTORS
330
C
102
}
330
C
100
AcDbDictionary
281
     1
  0
ACDBDICTIONARYWDFLT
  5
E
102
{ACAD_REACTORS
330
C
102
}
330
C
100
AcDbDictionary
281
     1
  3
Normal
350
F
100
AcDbDictionaryWithDefault
340
F
  0
DICTIONARY
  5
47
102
{ACAD_REACTORS
330
C
102
}
330
C
100
AcDbDictionary
281
     1
  3
A0
350
48
  3
A1
350
49
  3
A2
350
4A
  3
A3
350
4B
  3
A4
350
4C
  3
A5
350
4D
  3
A6
350
4E
  3
A7
350
4F
  3
A8
350
50
  3
A9
350
51
  3
B0
350
52
  3
B1
350
53
  3
B2
350
54
  3
B3
350
55
  3
B4
350
56
  3
B5
350
57
  3
B6
350
58
  3
B7
350
59
  3
B8
350
5A
  3
B9
350
5B
  3
C0
350
5C
  3
C1
350
5D
  3
C2
350
5E
  3
C3
350
5F
  3
C4
350
60
  3
C5
350
61
  3
C6
350
62
  3
C7
350
63
  3
C8
350
64
  3
C9
350
65
  3
D0
350
66
  3
D1
350
67
  3
D2
350
68
  0
LAYOUT
  5
1E
102
{ACAD_REACTORS
330
1A
102
}
330
1A
100
AcDbPlotSettings
  1

  2
none_device
  4

  6

 40
0.0
 41
0.0
 42
0.0
 43
0.0
 44
0.0
 45
0.0
 46
0.0
 47
0.0
 48
0.0
 49
0.0
140
0.0
141
0.0
142
1.0
143
1.0
 70
   688
 72
     1
 73
     0
 74
     5
  7

 75
    16
147
1.0
148
0.0
149
0.0
100
AcDbLayout
  1
Layout1
 70
     1
 71
     1
 10
0.0
 20
0.0
 11
420.0
 21
297.0
 12
0.0
 22
0.0
 32
0.0
 14
1.0000000000E+20
 24
1.0000000000E+20
 34
1.0000000000E+20
 15
-1.0000000000E+20
 25
-1.0000000000E+20
 35
-1.0000000000E+20
146
0.0
 13
0.0
 23
0.0
 33
0.0
 16
1.0
 26
0.0
 36
0.0
 17
0.0
 27
1.0
 37
0.0
 76
     0
330
1B
  0
LAYOUT
  5
26
102
{ACAD_REACTORS
330
1A
102
}
330
1A
100
AcDbPlotSettings
  1

  2
none_device
  4

  6

 40
0.0
 41
0.0
 42
0.0
 43
0.0
 44
0.0
 45
0.0
 46
0.0
 47
0.0
 48
0.0
 49
0.0
140
0.0
141
0.0
142
1.0
143
1.0
 70
   688
 72
     1
 73
     0
 74
     5
  7

 75
    16
147
1.0
148
0.0
149
0.0
100
AcDbLayout
  1
Layout2
 70
     1
 71
     2
 10
0.0
 20
0.0
 11
0.0
 21
0.0
 12
0.0
 22
0.0
 32
0.0
 14
0.0
 24
0.0
 34
0.0
 15
0.0
 25
0.0
 35
0.0
146
0.0
 13
0.0
 23
0.0
 33
0.0
 16
1.0
 26
0.0
 36
0.0
 17
0.0
 27
1.0
 37
0.0
 76
     0
330
23
  0
LAYOUT
  5
22
102
{ACAD_REACTORS
330
1A
102
}
330
1A
100
AcDbPlotSettings
  1

  2
none_device
  4
Letter_(8.50_x_11.00_Inches)
  6

 40
6.35
 41
6.35
 42
6.35000508
 43
6.35000508
 44
215.9
 45
279.4
 46
0.0
 47
0.0
 48
0.0
 49
0.0
140
0.0
141
0.0
142
1.0
143
1.0
 70
  1712
 72
     1
 73
     0
 74
     0
  7

 75
     0
147
1.0
148
0.0
149
0.0
100
AcDbLayout
  1
Model
 70
     1
 71
     0
 10
0.0
 20
0.0
 11
279.4
 21
215.9
 12
0.0
 22
0.0
 32
0.0
 14
0.0
 24
0.0
 34
0.0
 15
279.4
 25
215.9
 35
0.0
146
0.0
 13
0.0
 23
0.0
 33
0.0
 16
1.0
 26
0.0
 36
0.0
 17
0.0
 27
1.0
 37
0.0
 76
     0
330
1F
331
29
  0
MLINESTYLE
  5
18
102
{ACAD_REACTORS
330
17
102
}
330
17
100
AcDbMlineStyle
  2
Standard
 70
     0
  3

 62
   256
 51
90.0
 52
90.0
 71
     2
 49
0.5
 62
   256
  6
BYLAYER
 49
-0.5
 62
   256
  6
BYLAYER
  0
ACDBPLACEHOLDER
  5
F
102
{ACAD_REACTORS
330
E
102
}
330
E
  0
SCALE
  5
48
102
{ACAD_REACTORS
330
47
102
}
330
47
100
AcDbScale
 70
     0
300
1:1
140
1.0
141
1.0
290
     1
  0
SCALE
  5
49
102
{ACAD_REACTORS
330
47
102
}
330
47
100
AcDbScale
 70
     0
300
1:2
140
1.0
141
2.0
290
     0
  0
SCALE
  5
4A
102
{ACAD_REACTORS
330
47
102
}
330
47
100
AcDbScale
 70
     0
300
1:4
140
1.0
141
4.0
290
     0
  0
SCALE
  5
4B
102
{ACAD_REACTORS
330
47
102
}
330
47
100
AcDbScale
 70
     0
300
1:5
140
1.0
141
5.0
290
     0
  0
SCALE
  5
4C
102
{ACAD_REACTORS
330
47
102
}
330
47
100
AcDbScale
 70
     0
300
1:8
140
1.0
141
8.0
290
     0
  0
SCALE
  5
4D
102
{ACAD_REACTORS
330
47
102
}
330
47
100
AcDbScale
 70
     0
300
1:10
140
1.0
141
10.0
290
     0
  0
SCALE
  5
4E
102
{ACAD_REACTORS
330
47
102
}
330
47
100
AcDbScale
 70
     0
300
1:16
140
1.0
141
16.0
290
     0
  0
SCALE
  5
4F
102
{ACAD_REACTORS
330
47
102
}
330
47
100
AcDbScale
 70
     0
300
1:20
140
1.0
141
20.0
290
     0
  0
SCALE
  5
50
102
{ACAD_REACTORS
330
47
102
}
330
47
100
AcDbScale
 70
     0
300
1:30
140
1.0
141
30.0
290
     0
  0
SCALE
  5
51
102
{ACAD_REACTORS
330
47
102
}
330
47
100
AcDbScale
 70
     0
300
1:40
140
1.0
141
40.0
290
     0
  0
SCALE
  5
52
102
{ACAD_REACTORS
330
47
102
}
330
47
100
AcDbScale
 70
     0
300
1:50
140
1.0
141
50.0
290
     0
  0
SCALE
  5
53
102
{ACAD_REACTORS
330
47
102
}
330
47
100
AcDbScale
 70
     0
300
1:100
140
1.0
141
100.0
290
     0
  0
SCALE
  5
54
102
{ACAD_REACTORS
330
47
102
}
330
47
100
AcDbScale
 70
     0
300
2:1
140
2.0
141
1.0
290
     0
  0
SCALE
  5
55
102
{ACAD_REACTORS
330
47
102
}
330
47
100
AcDbScale
 70
     0
300
4:1
140
4.0
141
1.0
290
     0
  0
SCALE
  5
56
102
{ACAD_REACTORS
330
47
102
}
330
47
100
AcDbScale
 70
     0
300
8:1
140
8.0
141
1.0
290
     0
  0
SCALE
  5
57
102
{ACAD_REACTORS
330
47
102
}
330
47
100
AcDbScale
 70
     0
300
10:1
140
10.0
141
1.0
290
     0
  0
SCALE
  5
58
102
{ACAD_REACTORS
330
47
102
}
330
47
100
AcDbScale
 70
     0
300
100:1
140
100.0
141
1.0
290
     0
  0
SCALE
  5
59
102
{ACAD_REACTORS
330
47
102
}
330
47
100
AcDbScale
 70
     0
300
1/128" = 1'-0"
140
0.0078125
141
12.0
290
     0
  0
SCALE
  5
5A
102
{ACAD_REACTORS
330
47
102
}
330
47
100
AcDbScale
 70
     0
300
1/64" = 1'-0"
140
0.015625
141
12.0
290
     0
  0
SCALE
  5
5B
102
{ACAD_REACTORS
330
47
102
}
330
47
100
AcDbScale
 70
     0
300
1/32" = 1'-0"
140
0.03125
141
12.0
290
     0
  0
SCALE
  5
5C
102
{ACAD_REACTORS
330
47
102
}
330
47
100
AcDbScale
 70
     0
300
1/16" = 1'-0"
140
0.0625
141
12.0
290
     0
  0
SCALE
  5
5D
102
{ACAD_REACTORS
330
47
102
}
330
47
100
AcDbScale
 70
     0
300
3/32" = 1'-0"
140
0.09375
141
12.0
290
     0
  0
SCALE
  5
5E
102
{ACAD_REACTORS
330
47
102
}
330
47
100
AcDbScale
 70
     0
300
1/8" = 1'-0"
140
0.125
141
12.0
290
     0
  0
SCALE
  5
5F
102
{ACAD_REACTORS
330
47
102
}
330
47
100
AcDbScale
 70
     0
300
3/16" = 1'-0"
140
0.1875
141
12.0
290
     0
  0
SCALE
  5
60
102
{ACAD_REACTORS
330
47
102
}
330
47
100
AcDbScale
 70
     0
300
1/4" = 1'-0"
140
0.25
141
12.0
290
     0
  0
SCALE
  5
61
102
{ACAD_REACTORS
330
47
102
}
330
47
100
AcDbScale
 70
     0
300
3/8" = 1'-0"
140
0.375
141
12.0
290
     0
  0
SCALE
  5
62
102
{ACAD_REACTORS
330
47
102
}
330
47
100
AcDbScale
 70
     0
300
1/2" = 1'-0"
140
0.5
141
12.0
290
     0
  0
SCALE
  5
63
102
{ACAD_REACTORS
330
47
102
}
330
47
100
AcDbScale
 70
     0
300
3/4" = 1'-0"
140
0.75
141
12.0
290
     0
  0
SCALE
  5
64
102
{ACAD_REACTORS
330
47
102
}
330
47
100
AcDbScale
 70
     0
300
1" = 1'-0"
140
1.0
141
12.0
290
     0
  0
SCALE
  5
65
102
{ACAD_REACTORS
330
47
102
}
330
47
100
AcDbScale
 70
     0
300
1-1/2" = 1'-0"
140
1.5
141
12.0
290
     0
  0
SCALE
  5
66
102
{ACAD_REACTORS
330
47
102
}
330
47
100
AcDbScale
 70
     0
300
3" = 1'-0"
140
3.0
141
12.0
290
     0
  0
SCALE
  5
67
102
{ACAD_REACTORS
330
47
102
}
330
47
100
AcDbScale
 70
     0
300
6" = 1'-0"
140
6.0
141
12.0
290
     0
  0
SCALE
  5
68
102
{ACAD_REACTORS
330
47
102
}
330
47
100
AcDbScale
 70
     0
300
1'-0" = 1'-0"
140
12.0
141
12.0
290
     0
  0
ENDSEC
  0
EOF
